ISO-10303-21;
HEADER;
/* Generated by software containing ST-Developer
 * from STEP Tools, Inc. (www.steptools.com) 
 */

FILE_DESCRIPTION(
/* description */ ('Alibre Inc.'),
/* implementation_level */ '2;1');

FILE_NAME(
/* name */ 'export-D731DE6B-1189-426B-91F4-C4C780B4A3E1',
/* time_stamp */ '2020-03-19T17:55:00+01:00',
/* author */ (''),
/* organization */ (''),
/* preprocessor_version */ 'ST-DEVELOPER v17',
/* originating_system */ 'Alibre',
/* authorisation */ '');

FILE_SCHEMA (('AUTOMOTIVE_DESIGN'));
ENDSEC;

DATA;
#10=STYLED_ITEM('NAME_0',(#18),#594);
#11=MECHANICAL_DESIGN_GEOMETRIC_PRESENTATION_REPRESENTATION('NAME_0',(#10),
#33);
#12=COLOUR_RGB('',0.,0.,0.);
#13=FILL_AREA_STYLE_COLOUR('NAME_0',#12);
#14=FILL_AREA_STYLE('NAME_0',(#13));
#15=SURFACE_STYLE_FILL_AREA(#14);
#16=SURFACE_SIDE_STYLE('NAME_0',(#15));
#17=SURFACE_STYLE_USAGE(.POSITIVE.,#16);
#18=PRESENTATION_STYLE_ASSIGNMENT((#17));
#19=PRODUCT_DEFINITION_CONTEXT('part definition',#26,'design');
#20=SHAPE_DEFINITION_REPRESENTATION(#21,#595);
#21=PRODUCT_DEFINITION_SHAPE('PRODUCT_VERSION_ID',
'PRODUCT_VERSION_DESCR',#22);
#22=PRODUCT_DEFINITION('PRODUCT_VERSION_ID','PRODUCT_VERSION_DESCR',#23,
#19);
#23=PRODUCT_DEFINITION_FORMATION_WITH_SPECIFIED_SOURCE(
'PRODUCT_VERSION_ID','PRODUCT_VERSION_DESCR',#28,.MADE.);
#24=PRODUCT_RELATED_PRODUCT_CATEGORY('part','part',(#28));
#25=APPLICATION_PROTOCOL_DEFINITION('Draft International Standard',
'automotive_design',1994,#26);
#26=APPLICATION_CONTEXT('automotive_Design');
#27=PRODUCT_CONTEXT('3D Mechanical Parts',#26,'mechanical');
#28=PRODUCT('','1356 M5x16 Bolt ISO 7380-2 with Flange','',(#27));
#29=(
LENGTH_UNIT()
NAMED_UNIT(*)
SI_UNIT(.MILLI.,.METRE.)
);
#30=(
NAMED_UNIT(*)
PLANE_ANGLE_UNIT()
SI_UNIT($,.RADIAN.)
);
#31=(
NAMED_UNIT(*)
SI_UNIT($,.STERADIAN.)
SOLID_ANGLE_UNIT()
);
#32=UNCERTAINTY_MEASURE_WITH_UNIT(LENGTH_MEASURE(1.E-6),#29,
'DISTANCE_ACCURACY_VALUE',
'Maximum model space distance between geometric entities at asserted c
onnectivities');
#33=(
GEOMETRIC_REPRESENTATION_CONTEXT(3)
GLOBAL_UNCERTAINTY_ASSIGNED_CONTEXT((#32))
GLOBAL_UNIT_ASSIGNED_CONTEXT((#31,#30,#29))
REPRESENTATION_CONTEXT('ID1','3D')
);
#34=CYLINDRICAL_SURFACE('',#387,2.5);
#35=DEGENERATE_TOROIDAL_SURFACE('',#376,0.34594296328555,5.74999999999899,
 .F.);
#36=B_SPLINE_CURVE_WITH_KNOTS('',3,(#536,#537,#538,#539),.UNSPECIFIED.,
 .F.,.U.,(4,4),(0.0767635770405481,0.308814377905602),.UNSPECIFIED.);
#37=CONICAL_SURFACE('',#360,866.0254037844,1.0471975512);
#38=CONICAL_SURFACE('',#364,1.4,0.7853981634);
#39=CONICAL_SURFACE('',#385,2.0095,0.7853981634);
#40=CIRCLE('',#356,0.45);
#41=CIRCLE('',#357,2.95);
#42=CIRCLE('',#358,2.5);
#43=CIRCLE('',#359,2.5);
#44=CIRCLE('',#361,1.39999999316524);
#45=CIRCLE('',#362,1.39999999316524);
#46=CIRCLE('',#365,1.73205080757059);
#47=CIRCLE('',#366,1.73205080757059);
#48=CIRCLE('',#367,1.73205080757059);
#49=CIRCLE('',#369,5.4);
#50=CIRCLE('',#370,1.73205080757059);
#51=CIRCLE('',#372,1.73205080757059);
#52=CIRCLE('',#373,1.73205080757059);
#53=CIRCLE('',#374,1.73205080757059);
#54=CIRCLE('',#375,2.50000000000079);
#55=CIRCLE('',#377,4.39999999999988);
#56=CIRCLE('',#379,5.4);
#57=CIRCLE('',#381,5.9);
#58=CIRCLE('',#382,0.5);
#59=CIRCLE('',#384,2.0095);
#60=CIRCLE('',#386,2.5);
#61=CIRCLE('',#389,0.5);
#62=TOROIDAL_SURFACE('',#355,2.95,0.45);
#63=TOROIDAL_SURFACE('',#380,5.4,0.5);
#64=(
BOUNDED_CURVE()
B_SPLINE_CURVE(2,(#479,#480,#481),.UNSPECIFIED.,.F.,.U.)
B_SPLINE_CURVE_WITH_KNOTS((3,3),(1.6016276717335,4.38202226975432),
 .UNSPECIFIED.)
CURVE()
GEOMETRIC_REPRESENTATION_ITEM()
RATIONAL_B_SPLINE_CURVE((1.39061885941014,1.60574834564121,1.39061885941013))
REPRESENTATION_ITEM('')
);
#65=(
BOUNDED_CURVE()
B_SPLINE_CURVE(2,(#487,#488,#489),.UNSPECIFIED.,.F.,.U.)
B_SPLINE_CURVE_WITH_KNOTS((3,3),(1.60162767173343,4.38202226975426),
 .UNSPECIFIED.)
CURVE()
GEOMETRIC_REPRESENTATION_ITEM()
RATIONAL_B_SPLINE_CURVE((1.39061885941013,1.60574834564121,1.39061885941013))
REPRESENTATION_ITEM('')
);
#66=(
BOUNDED_CURVE()
B_SPLINE_CURVE(2,(#495,#496,#497),.UNSPECIFIED.,.F.,.U.)
B_SPLINE_CURVE_WITH_KNOTS((3,3),(1.60162767173347,4.38202226975431),
 .UNSPECIFIED.)
CURVE()
GEOMETRIC_REPRESENTATION_ITEM()
RATIONAL_B_SPLINE_CURVE((1.39061885941014,1.60574834564122,1.39061885941014))
REPRESENTATION_ITEM('')
);
#67=(
BOUNDED_CURVE()
B_SPLINE_CURVE(2,(#506,#507,#508),.UNSPECIFIED.,.F.,.U.)
B_SPLINE_CURVE_WITH_KNOTS((3,3),(1.60162767173343,4.38202226975426),
 .UNSPECIFIED.)
CURVE()
GEOMETRIC_REPRESENTATION_ITEM()
RATIONAL_B_SPLINE_CURVE((1.39061885941013,1.60574834564121,1.39061885941013))
REPRESENTATION_ITEM('')
);
#68=(
BOUNDED_CURVE()
B_SPLINE_CURVE(2,(#511,#512,#513),.UNSPECIFIED.,.F.,.U.)
B_SPLINE_CURVE_WITH_KNOTS((3,3),(1.60162767173347,2.9920677752001),
 .UNSPECIFIED.)
CURVE()
GEOMETRIC_REPRESENTATION_ITEM()
RATIONAL_B_SPLINE_CURVE((1.39061885941014,1.49820238921083,1.4981835992445))
REPRESENTATION_ITEM('')
);
#69=(
BOUNDED_CURVE()
B_SPLINE_CURVE(2,(#515,#516,#517),.UNSPECIFIED.,.F.,.U.)
B_SPLINE_CURVE_WITH_KNOTS((3,3),(2.9920677752001,4.3820222697543),
 .UNSPECIFIED.)
CURVE()
GEOMETRIC_REPRESENTATION_ITEM()
RATIONAL_B_SPLINE_CURVE((1.4981835992445,1.49816481584052,1.39061885941014))
REPRESENTATION_ITEM('')
);
#70=(
BOUNDED_CURVE()
B_SPLINE_CURVE(3,(#555,#556,#557,#558),.UNSPECIFIED.,.F.,.U.)
B_SPLINE_CURVE_WITH_KNOTS((4,4),(0.,6.28318530717959),.UNSPECIFIED.)
CURVE()
GEOMETRIC_REPRESENTATION_ITEM()
RATIONAL_B_SPLINE_CURVE((1.,0.982964447051677,0.982964447051677,1.))
REPRESENTATION_ITEM('')
);
#71=(
BOUNDED_CURVE()
B_SPLINE_CURVE(2,(#578,#579,#580),.UNSPECIFIED.,.F.,.U.)
B_SPLINE_CURVE_WITH_KNOTS((3,3),(1.60162767173349,4.38202226975432),
 .UNSPECIFIED.)
CURVE()
GEOMETRIC_REPRESENTATION_ITEM()
RATIONAL_B_SPLINE_CURVE((1.39061885941014,1.60574834564121,1.39061885941013))
REPRESENTATION_ITEM('')
);
#72=VERTEX_POINT('',#473);
#73=VERTEX_POINT('',#474);
#74=VERTEX_POINT('',#476);
#75=VERTEX_POINT('',#478);
#76=VERTEX_POINT('',#484);
#77=VERTEX_POINT('',#485);
#78=VERTEX_POINT('',#492);
#79=VERTEX_POINT('',#493);
#80=VERTEX_POINT('',#500);
#81=VERTEX_POINT('',#501);
#82=VERTEX_POINT('',#503);
#83=VERTEX_POINT('',#505);
#84=VERTEX_POINT('',#514);
#85=VERTEX_POINT('',#520);
#86=VERTEX_POINT('',#521);
#87=VERTEX_POINT('',#524);
#88=VERTEX_POINT('',#528);
#89=VERTEX_POINT('',#529);
#90=VERTEX_POINT('',#531);
#91=VERTEX_POINT('',#540);
#92=VERTEX_POINT('',#546);
#93=VERTEX_POINT('',#553);
#94=VERTEX_POINT('',#559);
#95=VERTEX_POINT('',#563);
#96=VERTEX_POINT('',#566);
#97=VERTEX_POINT('',#570);
#98=VERTEX_POINT('',#573);
#99=VECTOR('',#391,1.);
#100=VECTOR('',#392,1.);
#101=VECTOR('',#393,1.);
#102=VECTOR('',#395,1.);
#103=VECTOR('',#396,1.);
#104=VECTOR('',#398,1.);
#105=VECTOR('',#399,1.);
#106=VECTOR('',#401,1.);
#107=VECTOR('',#402,1.);
#108=VECTOR('',#403,1.);
#109=VECTOR('',#405,1.);
#110=VECTOR('',#417,1.);
#111=VECTOR('',#423,1.);
#112=VECTOR('',#462,1.);
#113=VECTOR('',#467,1.);
#114=LINE('',#472,#99);
#115=LINE('',#475,#100);
#116=LINE('',#477,#101);
#117=LINE('',#483,#102);
#118=LINE('',#486,#103);
#119=LINE('',#491,#104);
#120=LINE('',#494,#105);
#121=LINE('',#499,#106);
#122=LINE('',#502,#107);
#123=LINE('',#504,#108);
#124=LINE('',#510,#109);
#125=LINE('',#527,#110);
#126=LINE('',#534,#111);
#127=LINE('',#572,#112);
#128=LINE('',#576,#113);
#129=EDGE_CURVE('',#72,#73,#114,.T.);
#130=EDGE_CURVE('',#72,#74,#115,.T.);
#131=EDGE_CURVE('',#74,#75,#116,.F.);
#132=EDGE_CURVE('',#73,#75,#64,.F.);
#133=EDGE_CURVE('',#76,#77,#117,.T.);
#134=EDGE_CURVE('',#76,#72,#118,.T.);
#135=EDGE_CURVE('',#77,#73,#65,.F.);
#136=EDGE_CURVE('',#78,#79,#119,.T.);
#137=EDGE_CURVE('',#78,#76,#120,.T.);
#138=EDGE_CURVE('',#79,#77,#66,.F.);
#139=EDGE_CURVE('',#80,#81,#121,.T.);
#140=EDGE_CURVE('',#80,#82,#122,.T.);
#141=EDGE_CURVE('',#82,#83,#123,.F.);
#142=EDGE_CURVE('',#81,#83,#67,.F.);
#143=EDGE_CURVE('',#74,#80,#124,.T.);
#144=EDGE_CURVE('',#84,#81,#68,.F.);
#145=EDGE_CURVE('',#75,#84,#69,.F.);
#146=EDGE_CURVE('',#85,#86,#40,.T.);
#147=EDGE_CURVE('',#85,#85,#41,.F.);
#148=EDGE_CURVE('',#87,#86,#42,.T.);
#149=EDGE_CURVE('',#86,#87,#43,.T.);
#150=EDGE_CURVE('',#88,#89,#125,.T.);
#151=EDGE_CURVE('',#90,#88,#44,.T.);
#152=EDGE_CURVE('',#88,#90,#45,.T.);
#153=EDGE_CURVE('',#82,#78,#126,.F.);
#154=EDGE_CURVE('',#91,#84,#36,.T.);
#155=EDGE_CURVE('',#91,#75,#46,.F.);
#156=EDGE_CURVE('',#83,#81,#47,.F.);
#157=EDGE_CURVE('',#75,#73,#48,.F.);
#158=EDGE_CURVE('',#92,#92,#49,.F.);
#159=EDGE_CURVE('',#73,#77,#50,.F.);
#160=EDGE_CURVE('',#81,#91,#51,.T.);
#161=EDGE_CURVE('',#79,#83,#52,.T.);
#162=EDGE_CURVE('',#77,#79,#53,.T.);
#163=EDGE_CURVE('',#93,#93,#54,.T.);
#164=EDGE_CURVE('',#93,#94,#70,.T.);
#165=EDGE_CURVE('',#94,#94,#55,.T.);
#166=EDGE_CURVE('',#95,#95,#56,.T.);
#167=EDGE_CURVE('',#96,#96,#57,.T.);
#168=EDGE_CURVE('',#96,#95,#58,.T.);
#169=EDGE_CURVE('',#97,#97,#59,.F.);
#170=EDGE_CURVE('',#98,#97,#127,.T.);
#171=EDGE_CURVE('',#98,#98,#60,.T.);
#172=EDGE_CURVE('',#98,#87,#128,.T.);
#173=EDGE_CURVE('',#83,#79,#71,.F.);
#174=EDGE_CURVE('',#92,#96,#61,.T.);
#175=ORIENTED_EDGE('',*,*,#129,.F.);
#176=ORIENTED_EDGE('',*,*,#130,.T.);
#177=ORIENTED_EDGE('',*,*,#131,.T.);
#178=ORIENTED_EDGE('',*,*,#132,.F.);
#179=ORIENTED_EDGE('',*,*,#133,.F.);
#180=ORIENTED_EDGE('',*,*,#134,.T.);
#181=ORIENTED_EDGE('',*,*,#129,.T.);
#182=ORIENTED_EDGE('',*,*,#135,.F.);
#183=ORIENTED_EDGE('',*,*,#136,.F.);
#184=ORIENTED_EDGE('',*,*,#137,.T.);
#185=ORIENTED_EDGE('',*,*,#133,.T.);
#186=ORIENTED_EDGE('',*,*,#138,.F.);
#187=ORIENTED_EDGE('',*,*,#139,.F.);
#188=ORIENTED_EDGE('',*,*,#140,.T.);
#189=ORIENTED_EDGE('',*,*,#141,.T.);
#190=ORIENTED_EDGE('',*,*,#142,.F.);
#191=ORIENTED_EDGE('',*,*,#131,.F.);
#192=ORIENTED_EDGE('',*,*,#143,.T.);
#193=ORIENTED_EDGE('',*,*,#139,.T.);
#194=ORIENTED_EDGE('',*,*,#144,.F.);
#195=ORIENTED_EDGE('',*,*,#145,.F.);
#196=ORIENTED_EDGE('',*,*,#146,.F.);
#197=ORIENTED_EDGE('',*,*,#147,.T.);
#198=ORIENTED_EDGE('',*,*,#146,.T.);
#199=ORIENTED_EDGE('',*,*,#148,.F.);
#200=ORIENTED_EDGE('',*,*,#149,.F.);
#201=ORIENTED_EDGE('',*,*,#150,.F.);
#202=ORIENTED_EDGE('',*,*,#151,.F.);
#203=ORIENTED_EDGE('',*,*,#152,.F.);
#204=ORIENTED_EDGE('',*,*,#150,.T.);
#205=ORIENTED_EDGE('',*,*,#151,.T.);
#206=ORIENTED_EDGE('',*,*,#152,.T.);
#207=ORIENTED_EDGE('',*,*,#143,.F.);
#208=ORIENTED_EDGE('',*,*,#130,.F.);
#209=ORIENTED_EDGE('',*,*,#134,.F.);
#210=ORIENTED_EDGE('',*,*,#137,.F.);
#211=ORIENTED_EDGE('',*,*,#153,.F.);
#212=ORIENTED_EDGE('',*,*,#140,.F.);
#213=ORIENTED_EDGE('',*,*,#154,.F.);
#214=ORIENTED_EDGE('',*,*,#155,.T.);
#215=ORIENTED_EDGE('',*,*,#145,.T.);
#216=ORIENTED_EDGE('',*,*,#156,.T.);
#217=ORIENTED_EDGE('',*,*,#142,.T.);
#218=ORIENTED_EDGE('',*,*,#157,.T.);
#219=ORIENTED_EDGE('',*,*,#132,.T.);
#220=ORIENTED_EDGE('',*,*,#147,.F.);
#221=ORIENTED_EDGE('',*,*,#158,.T.);
#222=ORIENTED_EDGE('',*,*,#159,.T.);
#223=ORIENTED_EDGE('',*,*,#135,.T.);
#224=ORIENTED_EDGE('',*,*,#155,.F.);
#225=ORIENTED_EDGE('',*,*,#160,.F.);
#226=ORIENTED_EDGE('',*,*,#156,.F.);
#227=ORIENTED_EDGE('',*,*,#161,.F.);
#228=ORIENTED_EDGE('',*,*,#162,.F.);
#229=ORIENTED_EDGE('',*,*,#159,.F.);
#230=ORIENTED_EDGE('',*,*,#157,.F.);
#231=ORIENTED_EDGE('',*,*,#163,.F.);
#232=ORIENTED_EDGE('',*,*,#164,.T.);
#233=ORIENTED_EDGE('',*,*,#165,.T.);
#234=ORIENTED_EDGE('',*,*,#164,.F.);
#235=ORIENTED_EDGE('',*,*,#163,.T.);
#236=ORIENTED_EDGE('',*,*,#166,.F.);
#237=ORIENTED_EDGE('',*,*,#165,.F.);
#238=ORIENTED_EDGE('',*,*,#167,.T.);
#239=ORIENTED_EDGE('',*,*,#168,.T.);
#240=ORIENTED_EDGE('',*,*,#166,.T.);
#241=ORIENTED_EDGE('',*,*,#168,.F.);
#242=ORIENTED_EDGE('',*,*,#169,.F.);
#243=ORIENTED_EDGE('',*,*,#170,.T.);
#244=ORIENTED_EDGE('',*,*,#169,.T.);
#245=ORIENTED_EDGE('',*,*,#170,.F.);
#246=ORIENTED_EDGE('',*,*,#171,.F.);
#247=ORIENTED_EDGE('',*,*,#172,.T.);
#248=ORIENTED_EDGE('',*,*,#148,.T.);
#249=ORIENTED_EDGE('',*,*,#149,.T.);
#250=ORIENTED_EDGE('',*,*,#172,.F.);
#251=ORIENTED_EDGE('',*,*,#171,.T.);
#252=ORIENTED_EDGE('',*,*,#141,.F.);
#253=ORIENTED_EDGE('',*,*,#153,.T.);
#254=ORIENTED_EDGE('',*,*,#136,.T.);
#255=ORIENTED_EDGE('',*,*,#173,.F.);
#256=ORIENTED_EDGE('',*,*,#162,.T.);
#257=ORIENTED_EDGE('',*,*,#138,.T.);
#258=ORIENTED_EDGE('',*,*,#161,.T.);
#259=ORIENTED_EDGE('',*,*,#173,.T.);
#260=ORIENTED_EDGE('',*,*,#154,.T.);
#261=ORIENTED_EDGE('',*,*,#144,.T.);
#262=ORIENTED_EDGE('',*,*,#160,.T.);
#263=ORIENTED_EDGE('',*,*,#167,.F.);
#264=ORIENTED_EDGE('',*,*,#174,.F.);
#265=ORIENTED_EDGE('',*,*,#158,.F.);
#266=ORIENTED_EDGE('',*,*,#174,.T.);
#267=EDGE_LOOP('',(#175,#176,#177,#178));
#268=EDGE_LOOP('',(#179,#180,#181,#182));
#269=EDGE_LOOP('',(#183,#184,#185,#186));
#270=EDGE_LOOP('',(#187,#188,#189,#190));
#271=EDGE_LOOP('',(#191,#192,#193,#194,#195));
#272=EDGE_LOOP('',(#196,#197,#198,#199,#200));
#273=EDGE_LOOP('',(#201,#202,#203,#204));
#274=EDGE_LOOP('',(#205,#206));
#275=EDGE_LOOP('',(#207,#208,#209,#210,#211,#212));
#276=EDGE_LOOP('',(#213,#214,#215));
#277=EDGE_LOOP('',(#216,#217));
#278=EDGE_LOOP('',(#218,#219));
#279=EDGE_LOOP('',(#220));
#280=EDGE_LOOP('',(#221));
#281=EDGE_LOOP('',(#222,#223));
#282=EDGE_LOOP('',(#224,#225,#226,#227,#228,#229,#230));
#283=EDGE_LOOP('',(#231));
#284=EDGE_LOOP('',(#232,#233,#234,#235));
#285=EDGE_LOOP('',(#236));
#286=EDGE_LOOP('',(#237));
#287=EDGE_LOOP('',(#238,#239,#240,#241));
#288=EDGE_LOOP('',(#242));
#289=EDGE_LOOP('',(#243,#244,#245,#246));
#290=EDGE_LOOP('',(#247,#248,#249,#250,#251));
#291=EDGE_LOOP('',(#252,#253,#254,#255));
#292=EDGE_LOOP('',(#256,#257));
#293=EDGE_LOOP('',(#258,#259));
#294=EDGE_LOOP('',(#260,#261,#262));
#295=EDGE_LOOP('',(#263,#264,#265,#266));
#296=FACE_BOUND('',#267,.T.);
#297=FACE_BOUND('',#268,.T.);
#298=FACE_BOUND('',#269,.T.);
#299=FACE_BOUND('',#270,.T.);
#300=FACE_BOUND('',#271,.T.);
#301=FACE_BOUND('',#272,.T.);
#302=FACE_BOUND('',#273,.T.);
#303=FACE_BOUND('',#274,.T.);
#304=FACE_BOUND('',#275,.T.);
#305=FACE_BOUND('',#276,.T.);
#306=FACE_BOUND('',#277,.T.);
#307=FACE_BOUND('',#278,.T.);
#308=FACE_BOUND('',#279,.T.);
#309=FACE_BOUND('',#280,.T.);
#310=FACE_BOUND('',#281,.T.);
#311=FACE_BOUND('',#282,.T.);
#312=FACE_BOUND('',#283,.T.);
#313=FACE_BOUND('',#284,.T.);
#314=FACE_BOUND('',#285,.T.);
#315=FACE_BOUND('',#286,.T.);
#316=FACE_BOUND('',#287,.T.);
#317=FACE_BOUND('',#288,.T.);
#318=FACE_BOUND('',#289,.T.);
#319=FACE_BOUND('',#290,.T.);
#320=FACE_BOUND('',#291,.T.);
#321=FACE_BOUND('',#292,.T.);
#322=FACE_BOUND('',#293,.T.);
#323=FACE_BOUND('',#294,.T.);
#324=FACE_BOUND('',#295,.T.);
#325=ADVANCED_FACE('',(#296),#582,.T.);
#326=ADVANCED_FACE('',(#297),#583,.T.);
#327=ADVANCED_FACE('',(#298),#584,.T.);
#328=ADVANCED_FACE('',(#299),#585,.T.);
#329=ADVANCED_FACE('',(#300),#586,.T.);
#330=ADVANCED_FACE('',(#301),#62,.F.);
#331=ADVANCED_FACE('',(#302),#37,.F.);
#332=ADVANCED_FACE('',(#303,#304),#587,.F.);
#333=ADVANCED_FACE('',(#305),#38,.F.);
#334=ADVANCED_FACE('',(#306),#38,.F.);
#335=ADVANCED_FACE('',(#307),#38,.F.);
#336=ADVANCED_FACE('',(#308,#309),#588,.F.);
#337=ADVANCED_FACE('',(#310),#38,.F.);
#338=ADVANCED_FACE('',(#311,#312),#589,.F.);
#339=ADVANCED_FACE('',(#313),#35,.T.);
#340=ADVANCED_FACE('',(#314,#315),#590,.F.);
#341=ADVANCED_FACE('',(#316),#63,.T.);
#342=ADVANCED_FACE('',(#317),#591,.F.);
#343=ADVANCED_FACE('',(#318),#39,.T.);
#344=ADVANCED_FACE('',(#319),#34,.T.);
#345=ADVANCED_FACE('',(#320),#592,.T.);
#346=ADVANCED_FACE('',(#321),#38,.F.);
#347=ADVANCED_FACE('',(#322),#38,.F.);
#348=ADVANCED_FACE('',(#323),#38,.F.);
#349=ADVANCED_FACE('',(#324),#63,.T.);
#350=AXIS2_PLACEMENT_3D('',#471,#390,$);
#351=AXIS2_PLACEMENT_3D('',#482,#394,$);
#352=AXIS2_PLACEMENT_3D('',#490,#397,$);
#353=AXIS2_PLACEMENT_3D('',#498,#400,$);
#354=AXIS2_PLACEMENT_3D('',#509,#404,$);
#355=AXIS2_PLACEMENT_3D('',#518,#406,$);
#356=AXIS2_PLACEMENT_3D('',#519,#407,#408);
#357=AXIS2_PLACEMENT_3D('',#522,#409,#410);
#358=AXIS2_PLACEMENT_3D('',#523,#411,#412);
#359=AXIS2_PLACEMENT_3D('',#525,#413,#414);
#360=AXIS2_PLACEMENT_3D('',#526,#415,#416);
#361=AXIS2_PLACEMENT_3D('',#530,#418,#419);
#362=AXIS2_PLACEMENT_3D('',#532,#420,#421);
#363=AXIS2_PLACEMENT_3D('',#533,#422,$);
#364=AXIS2_PLACEMENT_3D('',#535,#424,#425);
#365=AXIS2_PLACEMENT_3D('',#541,#426,#427);
#366=AXIS2_PLACEMENT_3D('',#542,#428,#429);
#367=AXIS2_PLACEMENT_3D('',#543,#430,#431);
#368=AXIS2_PLACEMENT_3D('',#544,#432,$);
#369=AXIS2_PLACEMENT_3D('',#545,#433,#434);
#370=AXIS2_PLACEMENT_3D('',#547,#435,#436);
#371=AXIS2_PLACEMENT_3D('',#548,#437,$);
#372=AXIS2_PLACEMENT_3D('',#549,#438,#439);
#373=AXIS2_PLACEMENT_3D('',#550,#440,#441);
#374=AXIS2_PLACEMENT_3D('',#551,#442,#443);
#375=AXIS2_PLACEMENT_3D('',#552,#444,#445);
#376=AXIS2_PLACEMENT_3D('',#554,#446,$);
#377=AXIS2_PLACEMENT_3D('',#560,#447,#448);
#378=AXIS2_PLACEMENT_3D('',#561,#449,$);
#379=AXIS2_PLACEMENT_3D('',#562,#450,#451);
#380=AXIS2_PLACEMENT_3D('',#564,#452,$);
#381=AXIS2_PLACEMENT_3D('',#565,#453,#454);
#382=AXIS2_PLACEMENT_3D('',#567,#455,#456);
#383=AXIS2_PLACEMENT_3D('',#568,#457,$);
#384=AXIS2_PLACEMENT_3D('',#569,#458,#459);
#385=AXIS2_PLACEMENT_3D('',#571,#460,#461);
#386=AXIS2_PLACEMENT_3D('',#574,#463,#464);
#387=AXIS2_PLACEMENT_3D('',#575,#465,#466);
#388=AXIS2_PLACEMENT_3D('',#577,#468,$);
#389=AXIS2_PLACEMENT_3D('',#581,#469,#470);
#390=DIRECTION('',(0.,-0.866025403784433,-0.500000000000009));
#391=DIRECTION('',(-1.,0.,0.));
#392=DIRECTION('',(0.,-0.500000000000009,0.866025403784433));
#393=DIRECTION('',(1.,0.,0.));
#394=DIRECTION('',(0.,-0.866025403784433,0.500000000000009));
#395=DIRECTION('',(-1.,0.,0.));
#396=DIRECTION('',(0.,0.500000000000009,0.866025403784433));
#397=DIRECTION('',(0.,0.,1.));
#398=DIRECTION('',(-1.,0.,0.));
#399=DIRECTION('',(0.,1.,0.));
#400=DIRECTION('',(0.,0.866025403784433,-0.500000000000009));
#401=DIRECTION('',(-1.,0.,0.));
#402=DIRECTION('',(0.,-0.500000000000009,-0.866025403784433));
#403=DIRECTION('',(1.,0.,0.));
#404=DIRECTION('',(0.,0.,-1.));
#405=DIRECTION('',(0.,-1.,0.));
#406=DIRECTION('',(1.,0.,0.));
#407=DIRECTION('',(0.,1.,0.));
#408=DIRECTION('',(0.,0.,-0.45));
#409=DIRECTION('',(-1.,0.,0.));
#410=DIRECTION('',(0.,0.,2.95));
#411=DIRECTION('',(1.,0.,0.));
#412=DIRECTION('',(0.,0.,2.5));
#413=DIRECTION('',(1.,0.,0.));
#414=DIRECTION('',(0.,0.,2.5));
#415=DIRECTION('',(-1.,0.,0.));
#416=DIRECTION('',(0.,0.,866.0254037844));
#417=DIRECTION('',(0.499999999997054,0.,-0.86602540378614));
#418=DIRECTION('',(1.,0.,0.));
#419=DIRECTION('',(0.,0.,1.39999999316524));
#420=DIRECTION('',(1.,0.,0.));
#421=DIRECTION('',(0.,0.,1.39999999316524));
#422=DIRECTION('',(1.,0.,0.));
#423=DIRECTION('',(0.,-0.500000000000009,0.866025403784433));
#424=DIRECTION('',(-1.,0.,0.));
#425=DIRECTION('',(0.,0.,1.4));
#426=DIRECTION('',(1.,0.,0.));
#427=DIRECTION('',(0.,0.,1.73205080757059));
#428=DIRECTION('',(1.,0.,0.));
#429=DIRECTION('',(0.,0.,1.73205080757059));
#430=DIRECTION('',(1.,0.,0.));
#431=DIRECTION('',(0.,0.,1.73205080757059));
#432=DIRECTION('',(-1.,0.,0.));
#433=DIRECTION('',(-1.,0.,0.));
#434=DIRECTION('',(0.,0.,5.4));
#435=DIRECTION('',(1.,0.,0.));
#436=DIRECTION('',(0.,0.,1.73205080757059));
#437=DIRECTION('',(1.,0.,0.));
#438=DIRECTION('',(-1.,0.,0.));
#439=DIRECTION('',(0.,0.,1.73205080757059));
#440=DIRECTION('',(-1.,0.,0.));
#441=DIRECTION('',(0.,0.,1.73205080757059));
#442=DIRECTION('',(-1.,0.,0.));
#443=DIRECTION('',(0.,0.,1.73205080757059));
#444=DIRECTION('',(1.,0.,0.));
#445=DIRECTION('',(0.,0.,-2.50000000000079));
#446=DIRECTION('',(1.,-6.42893701546118E-13,2.45954969211149E-12));
#447=DIRECTION('',(-1.,0.,0.));
#448=DIRECTION('',(0.,0.,-4.39999999999988));
#449=DIRECTION('',(1.,0.,0.));
#450=DIRECTION('',(1.,0.,0.));
#451=DIRECTION('',(0.,0.,-5.4));
#452=DIRECTION('',(1.,0.,0.));
#453=DIRECTION('',(-1.,0.,0.));
#454=DIRECTION('',(0.,0.,-5.9));
#455=DIRECTION('',(0.,1.,0.));
#456=DIRECTION('',(0.,0.,-0.5));
#457=DIRECTION('',(-1.,0.,0.));
#458=DIRECTION('',(1.,0.,0.));
#459=DIRECTION('',(0.,0.,2.0095));
#460=DIRECTION('',(-1.,0.,0.));
#461=DIRECTION('',(0.,0.,2.0095));
#462=DIRECTION('',(0.707106781184743,0.,-0.707106781188352));
#463=DIRECTION('',(-1.,0.,0.));
#464=DIRECTION('',(0.,0.,2.5));
#465=DIRECTION('',(1.,0.,0.));
#466=DIRECTION('',(0.,0.,2.5));
#467=DIRECTION('',(-1.,0.,0.));
#468=DIRECTION('',(0.,0.866025403784433,0.500000000000009));
#469=DIRECTION('',(0.,1.,0.));
#470=DIRECTION('',(0.,0.,-0.5));
#471=CARTESIAN_POINT('',(-1.19,1.7320508075689,0.));
#472=CARTESIAN_POINT('',(-1.19,1.7320508075689,0.));
#473=CARTESIAN_POINT('',(-1.19,1.7320508075689,1.11022302462516E-16));
#474=CARTESIAN_POINT('',(-2.74999999999831,1.7320508075689,1.59673229959803E-16));
#475=CARTESIAN_POINT('',(-1.19,1.51554445662278,0.37500000000001));
#476=CARTESIAN_POINT('',(-1.19,0.86602540378444,1.5));
#477=CARTESIAN_POINT('',(-1.19,0.86602540378444,1.5));
#478=CARTESIAN_POINT('',(-2.74999999999828,0.86602540378444,1.5));
#479=CARTESIAN_POINT('',(-2.74999999999828,0.866025403784446,1.49999999999999));
#480=CARTESIAN_POINT('',(-2.31698729810829,1.29903810567667,0.750000000000005));
#481=CARTESIAN_POINT('',(-2.7499999999983,1.73205080756889,1.01392501024475E-14));
#482=CARTESIAN_POINT('',(-1.19,0.86602540378444,-1.5));
#483=CARTESIAN_POINT('',(-1.19,0.86602540378444,-1.5));
#484=CARTESIAN_POINT('',(-1.19,0.86602540378444,-1.5));
#485=CARTESIAN_POINT('',(-2.74999999999828,0.86602540378444,-1.5));
#486=CARTESIAN_POINT('',(-1.19,1.08253175473055,-1.12500000000001));
#487=CARTESIAN_POINT('',(-2.7499999999983,1.73205080756889,-9.02153749272885E-15));
#488=CARTESIAN_POINT('',(-2.31698729810829,1.29903810567667,-0.750000000000005));
#489=CARTESIAN_POINT('',(-2.74999999999828,0.866025403784446,-1.49999999999999));
#490=CARTESIAN_POINT('',(-1.19,-0.86602540378444,-1.5));
#491=CARTESIAN_POINT('',(-1.19,-0.86602540378444,-1.5));
#492=CARTESIAN_POINT('',(-1.19,-0.86602540378444,-1.5));
#493=CARTESIAN_POINT('',(-2.74999999999828,-0.86602540378444,-1.5));
#494=CARTESIAN_POINT('',(-1.19,-0.43301270189222,-1.5));
#495=CARTESIAN_POINT('',(-2.74999999999828,0.866025403784428,-1.5));
#496=CARTESIAN_POINT('',(-2.31698729810828,-1.11022302462516E-16,-1.5));
#497=CARTESIAN_POINT('',(-2.74999999999828,-0.866025403784428,-1.5));
#498=CARTESIAN_POINT('',(-1.19,-0.86602540378444,1.5));
#499=CARTESIAN_POINT('',(-1.19,-0.86602540378444,1.5));
#500=CARTESIAN_POINT('',(-1.19,-0.86602540378444,1.5));
#501=CARTESIAN_POINT('',(-2.74999999999828,-0.86602540378444,1.5));
#502=CARTESIAN_POINT('',(-1.19,-1.08253175473055,1.12500000000001));
#503=CARTESIAN_POINT('',(-1.19,-1.7320508075689,-2.22044604925031E-16));
#504=CARTESIAN_POINT('',(-1.19,-1.7320508075689,-2.22044604925031E-16));
#505=CARTESIAN_POINT('',(-2.7499999999983,-1.7320508075689,0.));
#506=CARTESIAN_POINT('',(-2.7499999999983,-1.73205080756889,9.34088395264845E-15));
#507=CARTESIAN_POINT('',(-2.31698729810829,-1.29903810567667,0.750000000000005));
#508=CARTESIAN_POINT('',(-2.74999999999828,-0.866025403784446,1.49999999999999));
#509=CARTESIAN_POINT('',(-1.19,0.86602540378444,1.5));
#510=CARTESIAN_POINT('',(-1.19,0.43301270189222,1.5));
#511=CARTESIAN_POINT('',(-2.74999999999828,-0.866025403784429,1.5));
#512=CARTESIAN_POINT('',(-2.51791157397806,-0.401848551741613,1.5));
#513=CARTESIAN_POINT('',(-2.51794919900091,0.000140395736954824,1.5));
#514=CARTESIAN_POINT('',(-2.51794920570539,0.00014039573633047,1.50000000013391));
#515=CARTESIAN_POINT('',(-2.51794919900091,0.000140395736954824,1.5));
#516=CARTESIAN_POINT('',(-2.51798681182658,0.401999027438658,1.5));
#517=CARTESIAN_POINT('',(-2.74999999999828,0.866025403784427,1.5));
#518=CARTESIAN_POINT('',(0.450000000000073,0.,0.));
#519=CARTESIAN_POINT('',(0.450000000000073,0.,-2.95));
#520=CARTESIAN_POINT('',(3.6498581934552E-14,-3.61270805748469E-16,-2.95));
#521=CARTESIAN_POINT('',(0.450000000000073,-1.53080849893419E-16,-2.5));
#522=CARTESIAN_POINT('',(0.,0.,0.));
#523=CARTESIAN_POINT('',(0.450000000000073,0.,0.));
#524=CARTESIAN_POINT('',(0.450000000000073,3.06161699786838E-16,2.5));
#525=CARTESIAN_POINT('',(0.450000000000073,0.,0.));
#526=CARTESIAN_POINT('',(-500.381709623136,0.,0.));
#527=CARTESIAN_POINT('',(498.809999996049,0.,-864.625403791235));
#528=CARTESIAN_POINT('',(-1.18999999999997,8.57252759403147E-17,1.39999999658268));
#529=CARTESIAN_POINT('',(-0.381709627086849,0.,1.13686837721616E-13));
#530=CARTESIAN_POINT('',(-1.19,0.,0.));
#531=CARTESIAN_POINT('',(-1.19,1.07358399454613E-8,-1.39999999658268));
#532=CARTESIAN_POINT('',(-1.19,0.,0.));
#533=CARTESIAN_POINT('',(-1.19,0.,0.));
#534=CARTESIAN_POINT('',(-1.19,-1.51554445662278,-0.37500000000001));
#535=CARTESIAN_POINT('',(-2.4179491924311,0.,0.));
#536=CARTESIAN_POINT('',(-2.75000000000735,1.64442767300191E-15,1.73205080757795));
#537=CARTESIAN_POINT('',(-2.67264973304988,4.67985787777132E-5,1.65470054062008));
#538=CARTESIAN_POINT('',(-2.59529946701806,9.35971577589488E-5,1.57735027273657));
#539=CARTESIAN_POINT('',(-2.51794920242011,0.000140395736637964,1.5000000034192));
#540=CARTESIAN_POINT('',(-2.75,1.64442767300889E-15,1.7320508075853));
#541=CARTESIAN_POINT('',(-2.75,0.,0.));
#542=CARTESIAN_POINT('',(-2.75,0.,0.));
#543=CARTESIAN_POINT('',(-2.75,0.,0.));
#544=CARTESIAN_POINT('',(0.,5.92,0.));
#545=CARTESIAN_POINT('',(0.,0.,0.));
#546=CARTESIAN_POINT('',(0.,-6.61309271539571E-16,-5.4));
#547=CARTESIAN_POINT('',(-2.75,0.,0.));
#548=CARTESIAN_POINT('',(-2.75,0.,4.4));
#549=CARTESIAN_POINT('',(-2.75,0.,0.));
#550=CARTESIAN_POINT('',(-2.75,0.,0.));
#551=CARTESIAN_POINT('',(-2.75,0.,0.));
#552=CARTESIAN_POINT('',(-2.75,-1.78509984571917E-13,7.00217661631086E-13));
#553=CARTESIAN_POINT('',(-2.74999999999999,-1.30624677741056E-15,-2.50000000000002));
#554=CARTESIAN_POINT('',(2.24630950299412,-1.78509984571917E-13,7.00217661631086E-13));
#555=CARTESIAN_POINT('',(-2.75,0.,-2.5));
#556=CARTESIAN_POINT('',(-2.31644562434133,0.,-3.2611438019363));
#557=CARTESIAN_POINT('',(-1.72300266200124,0.,-3.90545330390553));
#558=CARTESIAN_POINT('',(-1.,0.,-4.4));
#559=CARTESIAN_POINT('',(-1.0000000000011,-1.87762521040995E-15,-4.39999999999925));
#560=CARTESIAN_POINT('',(-1.,-1.78509984571917E-13,7.00217661631086E-13));
#561=CARTESIAN_POINT('',(-1.,0.,0.));
#562=CARTESIAN_POINT('',(-1.,0.,0.));
#563=CARTESIAN_POINT('',(-1.,-6.61309271539571E-16,-5.4));
#564=CARTESIAN_POINT('',(-0.5,0.,0.));
#565=CARTESIAN_POINT('',(-0.5,0.,0.));
#566=CARTESIAN_POINT('',(-0.5,7.22541611496938E-16,-5.9));
#567=CARTESIAN_POINT('',(-0.5,0.,-5.4));
#568=CARTESIAN_POINT('',(16.,0.,0.));
#569=CARTESIAN_POINT('',(16.,0.,0.));
#570=CARTESIAN_POINT('',(16.,-2.46092774288661E-16,2.0095));
#571=CARTESIAN_POINT('',(16.,0.,0.));
#572=CARTESIAN_POINT('',(15.55855,0.,2.45095000000225));
#573=CARTESIAN_POINT('',(15.5095000000006,-3.06161699786838E-16,2.50000000000125));
#574=CARTESIAN_POINT('',(15.5095000000025,0.,0.));
#575=CARTESIAN_POINT('',(-2.75,0.,0.));
#576=CARTESIAN_POINT('',(18.7095000000001,0.,2.5));
#577=CARTESIAN_POINT('',(-1.19,-1.7320508075689,0.));
#578=CARTESIAN_POINT('',(-2.74999999999828,-0.866025403784447,-1.49999999999999));
#579=CARTESIAN_POINT('',(-2.31698729810829,-1.29903810567667,-0.750000000000005));
#580=CARTESIAN_POINT('',(-2.7499999999983,-1.73205080756889,-1.06981064073068E-14));
#581=CARTESIAN_POINT('',(-0.5,0.,-5.4));
#582=PLANE('',#350);
#583=PLANE('',#351);
#584=PLANE('',#352);
#585=PLANE('',#353);
#586=PLANE('',#354);
#587=PLANE('',#363);
#588=PLANE('',#368);
#589=PLANE('',#371);
#590=PLANE('',#378);
#591=PLANE('',#383);
#592=PLANE('',#388);
#593=CLOSED_SHELL('',(#325,#326,#327,#328,#329,#330,#331,#332,#333,#334,
#335,#336,#337,#338,#339,#340,#341,#342,#343,#344,#345,#346,#347,#348,#349));
#594=MANIFOLD_SOLID_BREP('',#593);
#595=ADVANCED_BREP_SHAPE_REPRESENTATION('',(#594),#33);
ENDSEC;
END-ISO-10303-21;
