ISO-10303-21;
HEADER;
/* Generated by software containing ST-Developer
 * from STEP Tools, Inc. (www.steptools.com) 
 */

FILE_DESCRIPTION(
/* description */ ('Alibre Inc.'),
/* implementation_level */ '2;1');

FILE_NAME(
/* name */ 'export-43D3B771-FE43-4069-AC02-40F6344335DF',
/* time_stamp */ '2021-04-02T13:59:54+02:00',
/* author */ (''),
/* organization */ (''),
/* preprocessor_version */ 'ST-DEVELOPER v17',
/* originating_system */ 'Alibre',
/* authorisation */ '');

FILE_SCHEMA (('AUTOMOTIVE_DESIGN'));
ENDSEC;

DATA;
#10=STYLED_ITEM('NAME_0',(#37),#448);
#11=STYLED_ITEM('NAME_0',(#38),#263);
#12=STYLED_ITEM('NAME_0',(#38),#264);
#13=STYLED_ITEM('NAME_0',(#38),#265);
#14=STYLED_ITEM('NAME_0',(#38),#266);
#15=STYLED_ITEM('NAME_0',(#38),#267);
#16=STYLED_ITEM('NAME_0',(#38),#268);
#17=STYLED_ITEM('NAME_0',(#38),#269);
#18=STYLED_ITEM('NAME_0',(#38),#270);
#19=STYLED_ITEM('NAME_0',(#38),#271);
#20=STYLED_ITEM('NAME_0',(#38),#272);
#21=STYLED_ITEM('NAME_0',(#38),#273);
#22=STYLED_ITEM('NAME_0',(#38),#274);
#23=STYLED_ITEM('NAME_0',(#38),#275);
#24=MECHANICAL_DESIGN_GEOMETRIC_PRESENTATION_REPRESENTATION('NAME_0',(#10,
#11,#12,#13,#14,#15,#16,#17,#18,#19,#20,#21,#22,#23),#53);
#25=COLOUR_RGB('',0.882352941176471,0.882352941176471,0.882352941176471);
#26=COLOUR_RGB('',0.686274509803922,0.686274509803922,0.686274509803922);
#27=FILL_AREA_STYLE_COLOUR('NAME_0',#25);
#28=FILL_AREA_STYLE_COLOUR('NAME_0',#26);
#29=FILL_AREA_STYLE('NAME_0',(#27));
#30=FILL_AREA_STYLE('NAME_0',(#28));
#31=SURFACE_STYLE_FILL_AREA(#29);
#32=SURFACE_STYLE_FILL_AREA(#30);
#33=SURFACE_SIDE_STYLE('NAME_0',(#31));
#34=SURFACE_SIDE_STYLE('NAME_0',(#32));
#35=SURFACE_STYLE_USAGE(.POSITIVE.,#33);
#36=SURFACE_STYLE_USAGE(.POSITIVE.,#34);
#37=PRESENTATION_STYLE_ASSIGNMENT((#35));
#38=PRESENTATION_STYLE_ASSIGNMENT((#36));
#39=PRODUCT_DEFINITION_CONTEXT('part definition',#46,'design');
#40=SHAPE_DEFINITION_REPRESENTATION(#41,#449);
#41=PRODUCT_DEFINITION_SHAPE('PRODUCT_VERSION_ID',
'PRODUCT_VERSION_DESCR',#42);
#42=PRODUCT_DEFINITION('PRODUCT_VERSION_ID','PRODUCT_VERSION_DESCR',#43,
#39);
#43=PRODUCT_DEFINITION_FORMATION_WITH_SPECIFIED_SOURCE(
'PRODUCT_VERSION_ID','PRODUCT_VERSION_DESCR',#48,.MADE.);
#44=PRODUCT_RELATED_PRODUCT_CATEGORY('part','part',(#48));
#45=APPLICATION_PROTOCOL_DEFINITION('Draft International Standard',
'automotive_design',1994,#46);
#46=APPLICATION_CONTEXT('automotive_Design');
#47=PRODUCT_CONTEXT('3D Mechanical Parts',#46,'mechanical');
#48=PRODUCT('HI_Hexagon nut DIN 934 M4 01300.040.001(High)',
'1367 M4 nut DIN934','',(#47));
#49=(
LENGTH_UNIT()
NAMED_UNIT(*)
SI_UNIT(.MILLI.,.METRE.)
);
#50=(
NAMED_UNIT(*)
PLANE_ANGLE_UNIT()
SI_UNIT($,.RADIAN.)
);
#51=(
NAMED_UNIT(*)
SI_UNIT($,.STERADIAN.)
SOLID_ANGLE_UNIT()
);
#52=UNCERTAINTY_MEASURE_WITH_UNIT(LENGTH_MEASURE(1.E-6),#49,
'DISTANCE_ACCURACY_VALUE',
'Maximum model space distance between geometric entities at asserted c
onnectivities');
#53=(
GEOMETRIC_REPRESENTATION_CONTEXT(3)
GLOBAL_UNCERTAINTY_ASSIGNED_CONTEXT((#52))
GLOBAL_UNIT_ASSIGNED_CONTEXT((#51,#50,#49))
REPRESENTATION_CONTEXT('ID1','3D')
);
#54=CYLINDRICAL_SURFACE('',#285,1.621);
#55=PLANE('',#279);
#56=PLANE('',#280);
#57=PLANE('',#281);
#58=PLANE('',#291);
#59=PLANE('',#292);
#60=PLANE('',#295);
#61=PLANE('',#296);
#62=PLANE('',#297);
#63=(
BOUNDED_CURVE()
B_SPLINE_CURVE(2,(#305,#306,#307),.UNSPECIFIED.,.F.,.U.)
B_SPLINE_CURVE_WITH_KNOTS((3,3),(2.15021235179419,4.21119174540431),
 .UNSPECIFIED.)
CURVE()
GEOMETRIC_REPRESENTATION_ITEM()
RATIONAL_B_SPLINE_CURVE((1.08477334407909,1.08477334407909,1.00689012209101))
REPRESENTATION_ITEM('')
);
#64=(
BOUNDED_CURVE()
B_SPLINE_CURVE(2,(#309,#310,#311),.UNSPECIFIED.,.F.,.U.)
B_SPLINE_CURVE_WITH_KNOTS((3,3),(0.0892329581826384,4.21119174540235),
 .UNSPECIFIED.)
CURVE()
GEOMETRIC_REPRESENTATION_ITEM()
RATIONAL_B_SPLINE_CURVE((1.0068901220909,1.16265656606704,1.0068901220909))
REPRESENTATION_ITEM('')
);
#65=(
BOUNDED_CURVE()
B_SPLINE_CURVE(2,(#313,#314,#315),.UNSPECIFIED.,.F.,.U.)
B_SPLINE_CURVE_WITH_KNOTS((3,3),(0.0892329581833533,4.21119174540333),
 .UNSPECIFIED.)
CURVE()
GEOMETRIC_REPRESENTATION_ITEM()
RATIONAL_B_SPLINE_CURVE((1.00689012209095,1.1626565660671,1.00689012209095))
REPRESENTATION_ITEM('')
);
#66=(
BOUNDED_CURVE()
B_SPLINE_CURVE(2,(#317,#318,#319),.UNSPECIFIED.,.F.,.U.)
B_SPLINE_CURVE_WITH_KNOTS((3,3),(0.0892329581840658,4.21119174540431),
 .UNSPECIFIED.)
CURVE()
GEOMETRIC_REPRESENTATION_ITEM()
RATIONAL_B_SPLINE_CURVE((1.00689012209101,1.16265656606716,1.00689012209101))
REPRESENTATION_ITEM('')
);
#67=(
BOUNDED_CURVE()
B_SPLINE_CURVE(2,(#321,#322,#323),.UNSPECIFIED.,.F.,.U.)
B_SPLINE_CURVE_WITH_KNOTS((3,3),(0.0892329581826384,4.21119174540235),
 .UNSPECIFIED.)
CURVE()
GEOMETRIC_REPRESENTATION_ITEM()
RATIONAL_B_SPLINE_CURVE((1.0068901220909,1.16265656606704,1.0068901220909))
REPRESENTATION_ITEM('')
);
#68=(
BOUNDED_CURVE()
B_SPLINE_CURVE(2,(#325,#326,#327),.UNSPECIFIED.,.F.,.U.)
B_SPLINE_CURVE_WITH_KNOTS((3,3),(0.0892329581833533,4.21119174540333),
 .UNSPECIFIED.)
CURVE()
GEOMETRIC_REPRESENTATION_ITEM()
RATIONAL_B_SPLINE_CURVE((1.00689012209095,1.1626565660671,1.00689012209095))
REPRESENTATION_ITEM('')
);
#69=(
BOUNDED_CURVE()
B_SPLINE_CURVE(2,(#329,#330,#331),.UNSPECIFIED.,.F.,.U.)
B_SPLINE_CURVE_WITH_KNOTS((3,3),(0.0892329581840658,2.15021235179419),
 .UNSPECIFIED.)
CURVE()
GEOMETRIC_REPRESENTATION_ITEM()
RATIONAL_B_SPLINE_CURVE((1.00689012209101,1.08477334407909,1.08477334407909))
REPRESENTATION_ITEM('')
);
#70=(
BOUNDED_CURVE()
B_SPLINE_CURVE(2,(#335,#336,#337),.UNSPECIFIED.,.F.,.U.)
B_SPLINE_CURVE_WITH_KNOTS((3,3),(0.0892329581998063,4.21119174542588),
 .UNSPECIFIED.)
CURVE()
GEOMETRIC_REPRESENTATION_ITEM()
RATIONAL_B_SPLINE_CURVE((1.00689012209225,1.1626565660686,1.00689012209225))
REPRESENTATION_ITEM('')
);
#71=(
BOUNDED_CURVE()
B_SPLINE_CURVE(2,(#343,#344,#345),.UNSPECIFIED.,.F.,.U.)
B_SPLINE_CURVE_WITH_KNOTS((3,3),(0.0892329581998074,4.21119174542588),
 .UNSPECIFIED.)
CURVE()
GEOMETRIC_REPRESENTATION_ITEM()
RATIONAL_B_SPLINE_CURVE((1.00689012209225,1.16265656606859,1.00689012209225))
REPRESENTATION_ITEM('')
);
#72=(
BOUNDED_CURVE()
B_SPLINE_CURVE(2,(#351,#352,#353),.UNSPECIFIED.,.F.,.U.)
B_SPLINE_CURVE_WITH_KNOTS((3,3),(0.0892329581998063,4.21119174542589),
 .UNSPECIFIED.)
CURVE()
GEOMETRIC_REPRESENTATION_ITEM()
RATIONAL_B_SPLINE_CURVE((1.00689012209225,1.1626565660686,1.00689012209225))
REPRESENTATION_ITEM('')
);
#73=(
BOUNDED_CURVE()
B_SPLINE_CURVE(2,(#379,#380,#381),.UNSPECIFIED.,.F.,.U.)
B_SPLINE_CURVE_WITH_KNOTS((3,3),(2.15021235181458,4.21119174542789),
 .UNSPECIFIED.)
CURVE()
GEOMETRIC_REPRESENTATION_ITEM()
RATIONAL_B_SPLINE_CURVE((1.08477334408054,1.08477334408054,1.00689012209236))
REPRESENTATION_ITEM('')
);
#74=(
BOUNDED_CURVE()
B_SPLINE_CURVE(2,(#382,#383,#384),.UNSPECIFIED.,.F.,.U.)
B_SPLINE_CURVE_WITH_KNOTS((3,3),(0.0892329582012656,4.21119174542789),
 .UNSPECIFIED.)
CURVE()
GEOMETRIC_REPRESENTATION_ITEM()
RATIONAL_B_SPLINE_CURVE((1.00689012209236,1.16265656606873,1.00689012209236))
REPRESENTATION_ITEM('')
);
#75=(
BOUNDED_CURVE()
B_SPLINE_CURVE(2,(#386,#387,#388),.UNSPECIFIED.,.F.,.U.)
B_SPLINE_CURVE_WITH_KNOTS((3,3),(0.0892329581998061,4.21119174542588),
 .UNSPECIFIED.)
CURVE()
GEOMETRIC_REPRESENTATION_ITEM()
RATIONAL_B_SPLINE_CURVE((1.00689012209225,1.16265656606859,1.00689012209225))
REPRESENTATION_ITEM('')
);
#76=(
BOUNDED_CURVE()
B_SPLINE_CURVE(2,(#389,#390,#391),.UNSPECIFIED.,.F.,.U.)
B_SPLINE_CURVE_WITH_KNOTS((3,3),(0.0892329582012656,2.15021235181458),
 .UNSPECIFIED.)
CURVE()
GEOMETRIC_REPRESENTATION_ITEM()
RATIONAL_B_SPLINE_CURVE((1.00689012209236,1.08477334408054,1.08477334408054))
REPRESENTATION_ITEM('')
);
#77=CIRCLE('',#277,2.89999999998979);
#78=CIRCLE('',#278,2.89999999998979);
#79=CIRCLE('',#283,2.00000000000193);
#80=CIRCLE('',#284,1.621);
#81=CIRCLE('',#286,1.621);
#82=CIRCLE('',#287,1.621);
#83=CIRCLE('',#289,2.);
#84=CIRCLE('',#290,2.);
#85=CIRCLE('',#293,2.9);
#86=VERTEX_POINT('',#300);
#87=VERTEX_POINT('',#301);
#88=VERTEX_POINT('',#303);
#89=VERTEX_POINT('',#308);
#90=VERTEX_POINT('',#312);
#91=VERTEX_POINT('',#316);
#92=VERTEX_POINT('',#320);
#93=VERTEX_POINT('',#324);
#94=VERTEX_POINT('',#328);
#95=VERTEX_POINT('',#334);
#96=VERTEX_POINT('',#338);
#97=VERTEX_POINT('',#342);
#98=VERTEX_POINT('',#346);
#99=VERTEX_POINT('',#350);
#100=VERTEX_POINT('',#356);
#101=VERTEX_POINT('',#357);
#102=VERTEX_POINT('',#362);
#103=VERTEX_POINT('',#364);
#104=VERTEX_POINT('',#368);
#105=VERTEX_POINT('',#370);
#106=VERTEX_POINT('',#375);
#107=VERTEX_POINT('',#378);
#108=VERTEX_POINT('',#385);
#109=VECTOR('',#398,1.);
#110=VECTOR('',#404,1.);
#111=VECTOR('',#405,1.);
#112=VECTOR('',#407,1.);
#113=VECTOR('',#408,1.);
#114=VECTOR('',#410,1.);
#115=VECTOR('',#413,1.);
#116=VECTOR('',#420,1.);
#117=VECTOR('',#427,1.);
#118=VECTOR('',#438,1.);
#119=VECTOR('',#440,1.);
#120=LINE('',#299,#109);
#121=LINE('',#333,#110);
#122=LINE('',#339,#111);
#123=LINE('',#341,#112);
#124=LINE('',#347,#113);
#125=LINE('',#349,#114);
#126=LINE('',#355,#115);
#127=LINE('',#361,#116);
#128=LINE('',#367,#117);
#129=LINE('',#377,#118);
#130=LINE('',#393,#119);
#131=EDGE_CURVE('',#86,#87,#120,.T.);
#132=EDGE_CURVE('',#88,#87,#77,.F.);
#133=EDGE_CURVE('',#87,#88,#78,.F.);
#134=EDGE_CURVE('',#86,#89,#63,.T.);
#135=EDGE_CURVE('',#89,#90,#64,.T.);
#136=EDGE_CURVE('',#90,#91,#65,.T.);
#137=EDGE_CURVE('',#91,#92,#66,.T.);
#138=EDGE_CURVE('',#92,#93,#67,.T.);
#139=EDGE_CURVE('',#93,#94,#68,.T.);
#140=EDGE_CURVE('',#94,#86,#69,.T.);
#141=EDGE_CURVE('',#92,#95,#121,.T.);
#142=EDGE_CURVE('',#96,#95,#70,.F.);
#143=EDGE_CURVE('',#93,#96,#122,.F.);
#144=EDGE_CURVE('',#90,#97,#123,.T.);
#145=EDGE_CURVE('',#98,#97,#71,.F.);
#146=EDGE_CURVE('',#91,#98,#124,.F.);
#147=EDGE_CURVE('',#89,#99,#125,.T.);
#148=EDGE_CURVE('',#97,#99,#72,.F.);
#149=EDGE_CURVE('',#100,#101,#126,.T.);
#150=EDGE_CURVE('',#100,#100,#79,.F.);
#151=EDGE_CURVE('',#101,#101,#80,.T.);
#152=EDGE_CURVE('',#102,#101,#127,.T.);
#153=EDGE_CURVE('',#103,#102,#81,.T.);
#154=EDGE_CURVE('',#102,#103,#82,.T.);
#155=EDGE_CURVE('',#104,#103,#128,.T.);
#156=EDGE_CURVE('',#105,#104,#83,.T.);
#157=EDGE_CURVE('',#104,#105,#84,.T.);
#158=EDGE_CURVE('',#106,#106,#85,.F.);
#159=EDGE_CURVE('',#107,#106,#129,.T.);
#160=EDGE_CURVE('',#107,#98,#73,.T.);
#161=EDGE_CURVE('',#99,#108,#74,.T.);
#162=EDGE_CURVE('',#108,#96,#75,.T.);
#163=EDGE_CURVE('',#95,#107,#76,.T.);
#164=EDGE_CURVE('',#94,#108,#130,.T.);
#165=ORIENTED_EDGE('',*,*,#131,.T.);
#166=ORIENTED_EDGE('',*,*,#132,.F.);
#167=ORIENTED_EDGE('',*,*,#133,.F.);
#168=ORIENTED_EDGE('',*,*,#131,.F.);
#169=ORIENTED_EDGE('',*,*,#134,.T.);
#170=ORIENTED_EDGE('',*,*,#135,.T.);
#171=ORIENTED_EDGE('',*,*,#136,.T.);
#172=ORIENTED_EDGE('',*,*,#137,.T.);
#173=ORIENTED_EDGE('',*,*,#138,.T.);
#174=ORIENTED_EDGE('',*,*,#139,.T.);
#175=ORIENTED_EDGE('',*,*,#140,.T.);
#176=ORIENTED_EDGE('',*,*,#141,.T.);
#177=ORIENTED_EDGE('',*,*,#142,.F.);
#178=ORIENTED_EDGE('',*,*,#143,.F.);
#179=ORIENTED_EDGE('',*,*,#138,.F.);
#180=ORIENTED_EDGE('',*,*,#144,.T.);
#181=ORIENTED_EDGE('',*,*,#145,.F.);
#182=ORIENTED_EDGE('',*,*,#146,.F.);
#183=ORIENTED_EDGE('',*,*,#136,.F.);
#184=ORIENTED_EDGE('',*,*,#147,.T.);
#185=ORIENTED_EDGE('',*,*,#148,.F.);
#186=ORIENTED_EDGE('',*,*,#144,.F.);
#187=ORIENTED_EDGE('',*,*,#135,.F.);
#188=ORIENTED_EDGE('',*,*,#149,.F.);
#189=ORIENTED_EDGE('',*,*,#150,.T.);
#190=ORIENTED_EDGE('',*,*,#149,.T.);
#191=ORIENTED_EDGE('',*,*,#151,.F.);
#192=ORIENTED_EDGE('',*,*,#152,.F.);
#193=ORIENTED_EDGE('',*,*,#153,.F.);
#194=ORIENTED_EDGE('',*,*,#154,.F.);
#195=ORIENTED_EDGE('',*,*,#152,.T.);
#196=ORIENTED_EDGE('',*,*,#151,.T.);
#197=ORIENTED_EDGE('',*,*,#155,.F.);
#198=ORIENTED_EDGE('',*,*,#156,.F.);
#199=ORIENTED_EDGE('',*,*,#157,.F.);
#200=ORIENTED_EDGE('',*,*,#155,.T.);
#201=ORIENTED_EDGE('',*,*,#153,.T.);
#202=ORIENTED_EDGE('',*,*,#154,.T.);
#203=ORIENTED_EDGE('',*,*,#150,.F.);
#204=ORIENTED_EDGE('',*,*,#132,.T.);
#205=ORIENTED_EDGE('',*,*,#133,.T.);
#206=ORIENTED_EDGE('',*,*,#158,.F.);
#207=ORIENTED_EDGE('',*,*,#156,.T.);
#208=ORIENTED_EDGE('',*,*,#157,.T.);
#209=ORIENTED_EDGE('',*,*,#159,.T.);
#210=ORIENTED_EDGE('',*,*,#158,.T.);
#211=ORIENTED_EDGE('',*,*,#159,.F.);
#212=ORIENTED_EDGE('',*,*,#160,.T.);
#213=ORIENTED_EDGE('',*,*,#145,.T.);
#214=ORIENTED_EDGE('',*,*,#148,.T.);
#215=ORIENTED_EDGE('',*,*,#161,.T.);
#216=ORIENTED_EDGE('',*,*,#162,.T.);
#217=ORIENTED_EDGE('',*,*,#142,.T.);
#218=ORIENTED_EDGE('',*,*,#163,.T.);
#219=ORIENTED_EDGE('',*,*,#164,.T.);
#220=ORIENTED_EDGE('',*,*,#161,.F.);
#221=ORIENTED_EDGE('',*,*,#147,.F.);
#222=ORIENTED_EDGE('',*,*,#134,.F.);
#223=ORIENTED_EDGE('',*,*,#140,.F.);
#224=ORIENTED_EDGE('',*,*,#143,.T.);
#225=ORIENTED_EDGE('',*,*,#162,.F.);
#226=ORIENTED_EDGE('',*,*,#164,.F.);
#227=ORIENTED_EDGE('',*,*,#139,.F.);
#228=ORIENTED_EDGE('',*,*,#146,.T.);
#229=ORIENTED_EDGE('',*,*,#160,.F.);
#230=ORIENTED_EDGE('',*,*,#163,.F.);
#231=ORIENTED_EDGE('',*,*,#141,.F.);
#232=ORIENTED_EDGE('',*,*,#137,.F.);
#233=EDGE_LOOP('',(#165,#166,#167,#168,#169,#170,#171,#172,#173,#174,#175));
#234=EDGE_LOOP('',(#176,#177,#178,#179));
#235=EDGE_LOOP('',(#180,#181,#182,#183));
#236=EDGE_LOOP('',(#184,#185,#186,#187));
#237=EDGE_LOOP('',(#188,#189,#190,#191));
#238=EDGE_LOOP('',(#192,#193,#194,#195,#196));
#239=EDGE_LOOP('',(#197,#198,#199,#200,#201,#202));
#240=EDGE_LOOP('',(#203));
#241=EDGE_LOOP('',(#204,#205));
#242=EDGE_LOOP('',(#206));
#243=EDGE_LOOP('',(#207,#208));
#244=EDGE_LOOP('',(#209,#210,#211,#212,#213,#214,#215,#216,#217,#218));
#245=EDGE_LOOP('',(#219,#220,#221,#222,#223));
#246=EDGE_LOOP('',(#224,#225,#226,#227));
#247=EDGE_LOOP('',(#228,#229,#230,#231,#232));
#248=FACE_BOUND('',#233,.T.);
#249=FACE_BOUND('',#234,.T.);
#250=FACE_BOUND('',#235,.T.);
#251=FACE_BOUND('',#236,.T.);
#252=FACE_BOUND('',#237,.T.);
#253=FACE_BOUND('',#238,.T.);
#254=FACE_BOUND('',#239,.T.);
#255=FACE_BOUND('',#240,.T.);
#256=FACE_BOUND('',#241,.T.);
#257=FACE_BOUND('',#242,.T.);
#258=FACE_BOUND('',#243,.T.);
#259=FACE_BOUND('',#244,.T.);
#260=FACE_BOUND('',#245,.T.);
#261=FACE_BOUND('',#246,.T.);
#262=FACE_BOUND('',#247,.T.);
#263=ADVANCED_FACE('',(#248),#443,.T.);
#264=ADVANCED_FACE('',(#249),#55,.F.);
#265=ADVANCED_FACE('',(#250),#56,.F.);
#266=ADVANCED_FACE('',(#251),#57,.F.);
#267=ADVANCED_FACE('',(#252),#444,.F.);
#268=ADVANCED_FACE('',(#253),#54,.F.);
#269=ADVANCED_FACE('',(#254),#445,.F.);
#270=ADVANCED_FACE('',(#255,#256),#58,.F.);
#271=ADVANCED_FACE('',(#257,#258),#59,.F.);
#272=ADVANCED_FACE('',(#259),#446,.T.);
#273=ADVANCED_FACE('',(#260),#60,.F.);
#274=ADVANCED_FACE('',(#261),#61,.F.);
#275=ADVANCED_FACE('',(#262),#62,.F.);
#276=AXIS2_PLACEMENT_3D('',#298,#396,#397);
#277=AXIS2_PLACEMENT_3D('',#302,#399,#400);
#278=AXIS2_PLACEMENT_3D('',#304,#401,#402);
#279=AXIS2_PLACEMENT_3D('',#332,#403,$);
#280=AXIS2_PLACEMENT_3D('',#340,#406,$);
#281=AXIS2_PLACEMENT_3D('',#348,#409,$);
#282=AXIS2_PLACEMENT_3D('',#354,#411,#412);
#283=AXIS2_PLACEMENT_3D('',#358,#414,#415);
#284=AXIS2_PLACEMENT_3D('',#359,#416,#417);
#285=AXIS2_PLACEMENT_3D('',#360,#418,#419);
#286=AXIS2_PLACEMENT_3D('',#363,#421,#422);
#287=AXIS2_PLACEMENT_3D('',#365,#423,#424);
#288=AXIS2_PLACEMENT_3D('',#366,#425,#426);
#289=AXIS2_PLACEMENT_3D('',#369,#428,#429);
#290=AXIS2_PLACEMENT_3D('',#371,#430,#431);
#291=AXIS2_PLACEMENT_3D('',#372,#432,$);
#292=AXIS2_PLACEMENT_3D('',#373,#433,$);
#293=AXIS2_PLACEMENT_3D('',#374,#434,#435);
#294=AXIS2_PLACEMENT_3D('',#376,#436,#437);
#295=AXIS2_PLACEMENT_3D('',#392,#439,$);
#296=AXIS2_PLACEMENT_3D('',#394,#441,$);
#297=AXIS2_PLACEMENT_3D('',#395,#442,$);
#298=CARTESIAN_POINT('',(2.44944465005349,0.,0.));
#299=CARTESIAN_POINT('',(3.35743955253144,0.,2.62730669588228));
#300=CARTESIAN_POINT('',(2.85358983819723,2.22044604925031E-16,3.50000000009901));
#301=CARTESIAN_POINT('',(3.19999999999779,1.77573785876366E-16,2.89999999999872));
#302=CARTESIAN_POINT('',(3.2,0.,0.));
#303=CARTESIAN_POINT('',(3.19999999999779,4.01012550304447E-12,-2.89999999999872));
#304=CARTESIAN_POINT('',(3.2,0.,0.));
#305=CARTESIAN_POINT('',(2.85358983848305,4.09384331089985E-16,3.5));
#306=CARTESIAN_POINT('',(2.85358983848305,-0.937822173508723,3.5));
#307=CARTESIAN_POINT('',(2.54098244731601,-2.02072594216318,3.5));
#308=CARTESIAN_POINT('',(2.54098244731587,-2.02072594216369,3.5));
#309=CARTESIAN_POINT('',(2.54098244731601,-2.02072594216395,3.49999999999956));
#310=CARTESIAN_POINT('',(3.1243157806445,-3.03108891324553,1.75));
#311=CARTESIAN_POINT('',(2.54098244731601,-4.04145188432712,4.45212731690256E-13));
#312=CARTESIAN_POINT('',(2.54098244731587,-4.04145188432738,3.17004916998194E-16));
#313=CARTESIAN_POINT('',(2.54098244731601,-4.04145188432712,-4.44130780125693E-13));
#314=CARTESIAN_POINT('',(3.1243157806445,-3.03108891324554,-1.75));
#315=CARTESIAN_POINT('',(2.54098244731601,-2.02072594216395,-3.49999999999956));
#316=CARTESIAN_POINT('',(2.54098244731587,-2.02072594216369,-3.5));
#317=CARTESIAN_POINT('',(2.54098244731601,-2.02072594216318,-3.5));
#318=CARTESIAN_POINT('',(3.1243157806445,-3.33066907387547E-16,-3.5));
#319=CARTESIAN_POINT('',(2.54098244731601,2.02072594216318,-3.5));
#320=CARTESIAN_POINT('',(2.54098244731587,2.02072594216369,-3.5));
#321=CARTESIAN_POINT('',(2.54098244731601,2.02072594216395,-3.49999999999956));
#322=CARTESIAN_POINT('',(3.1243157806445,3.03108891324553,-1.75));
#323=CARTESIAN_POINT('',(2.54098244731601,4.04145188432712,-4.45212731690256E-13));
#324=CARTESIAN_POINT('',(2.54098244731587,4.04145188432738,-3.17004916998194E-16));
#325=CARTESIAN_POINT('',(2.54098244731601,4.04145188432712,4.44130780125693E-13));
#326=CARTESIAN_POINT('',(3.1243157806445,3.03108891324554,1.75));
#327=CARTESIAN_POINT('',(2.54098244731601,2.02072594216395,3.49999999999956));
#328=CARTESIAN_POINT('',(2.54098244731587,2.02072594216369,3.5));
#329=CARTESIAN_POINT('',(2.54098244731601,2.02072594216318,3.5));
#330=CARTESIAN_POINT('',(2.85358983848305,0.937822173508724,3.5));
#331=CARTESIAN_POINT('',(2.85358983848305,4.09384331089985E-16,3.5));
#332=CARTESIAN_POINT('',(4.2,2.02072594216369,-3.5));
#333=CARTESIAN_POINT('',(4.2,2.02072594216369,-3.5));
#334=CARTESIAN_POINT('',(0.659017552678241,2.02072594216369,-3.5));
#335=CARTESIAN_POINT('',(0.659017552678093,2.02072594216395,-3.49999999999956));
#336=CARTESIAN_POINT('',(0.0756842193496017,3.03108891324554,-1.75));
#337=CARTESIAN_POINT('',(0.659017552678092,4.04145188432712,-4.43703512628299E-13));
#338=CARTESIAN_POINT('',(0.659017552678241,4.04145188432738,3.99701851866773E-16));
#339=CARTESIAN_POINT('',(4.2,4.04145188432738,2.22044604925031E-16));
#340=CARTESIAN_POINT('',(4.2,-4.04145188432738,0.));
#341=CARTESIAN_POINT('',(4.2,-4.04145188432738,-1.22124532708767E-15));
#342=CARTESIAN_POINT('',(0.659017552678241,-4.04145188432738,-9.5790616223244E-16));
#343=CARTESIAN_POINT('',(0.659017552678092,-4.04145188432712,-4.44385762340968E-13));
#344=CARTESIAN_POINT('',(0.075684219349602,-3.03108891324554,-1.75));
#345=CARTESIAN_POINT('',(0.659017552678092,-2.02072594216395,-3.49999999999955));
#346=CARTESIAN_POINT('',(0.659017552678241,-2.02072594216369,-3.5));
#347=CARTESIAN_POINT('',(4.2,-2.02072594216369,-3.5));
#348=CARTESIAN_POINT('',(4.2,-2.02072594216369,3.5));
#349=CARTESIAN_POINT('',(4.2,-2.02072594216369,3.5));
#350=CARTESIAN_POINT('',(0.659017552678241,-2.02072594216369,3.5));
#351=CARTESIAN_POINT('',(0.659017552678093,-2.02072594216395,3.49999999999956));
#352=CARTESIAN_POINT('',(0.0756842193496014,-3.03108891324554,1.75));
#353=CARTESIAN_POINT('',(0.659017552678093,-4.04145188432712,4.41959985584811E-13));
#354=CARTESIAN_POINT('',(2.821,0.,0.));
#355=CARTESIAN_POINT('',(3.1621,0.,-1.96210000000174));
#356=CARTESIAN_POINT('',(3.19999999999952,-4.44089209850063E-16,-2.00000000000097));
#357=CARTESIAN_POINT('',(2.821,-1.98515246141786E-16,-1.621));
#358=CARTESIAN_POINT('',(3.2,0.,0.));
#359=CARTESIAN_POINT('',(2.821,0.,0.));
#360=CARTESIAN_POINT('',(3.2,0.,0.));
#361=CARTESIAN_POINT('',(0.,0.,-1.621));
#362=CARTESIAN_POINT('',(0.378999999999517,-9.92576230709522E-17,-1.62099999999952));
#363=CARTESIAN_POINT('',(0.378999999998066,0.,0.));
#364=CARTESIAN_POINT('',(0.378999999999516,0.,1.62099999999952));
#365=CARTESIAN_POINT('',(0.378999999998066,0.,0.));
#366=CARTESIAN_POINT('',(0.,0.,0.));
#367=CARTESIAN_POINT('',(0.4169,0.,1.58309999999787));
#368=CARTESIAN_POINT('',(0.,1.22464679914735E-16,2.));
#369=CARTESIAN_POINT('',(0.,0.,0.));
#370=CARTESIAN_POINT('',(0.,-1.22464679914735E-16,-2.));
#371=CARTESIAN_POINT('',(0.,0.,0.));
#372=CARTESIAN_POINT('',(3.2,4.2,0.));
#373=CARTESIAN_POINT('',(0.,0.,0.));
#374=CARTESIAN_POINT('',(0.,0.,0.));
#375=CARTESIAN_POINT('',(-1.66533453693773E-16,-3.55147571752732E-16,-2.9));
#376=CARTESIAN_POINT('',(0.,0.,0.));
#377=CARTESIAN_POINT('',(0.593115797415073,0.,-3.92730669590271));
#378=CARTESIAN_POINT('',(0.34641016180056,6.66133814775094E-16,-3.50000000010029));
#379=CARTESIAN_POINT('',(0.346410161511054,4.09384331089434E-16,-3.5));
#380=CARTESIAN_POINT('',(0.346410161511054,-0.937822173508724,-3.5));
#381=CARTESIAN_POINT('',(0.659017552678093,-2.02072594216318,-3.5));
#382=CARTESIAN_POINT('',(0.659017552678093,-2.02072594216318,3.5));
#383=CARTESIAN_POINT('',(0.0756842193496014,1.59594559789866E-16,3.5));
#384=CARTESIAN_POINT('',(0.659017552678093,2.02072594216318,3.5));
#385=CARTESIAN_POINT('',(0.659017552678241,2.02072594216369,3.5));
#386=CARTESIAN_POINT('',(0.659017552678093,2.02072594216395,3.49999999999956));
#387=CARTESIAN_POINT('',(0.0756842193496017,3.03108891324554,1.75));
#388=CARTESIAN_POINT('',(0.659017552678092,4.04145188432712,4.43593250048473E-13));
#389=CARTESIAN_POINT('',(0.659017552678093,2.02072594216318,-3.5));
#390=CARTESIAN_POINT('',(0.346410161511054,0.937822173508724,-3.5));
#391=CARTESIAN_POINT('',(0.346410161511054,4.09384331089434E-16,-3.5));
#392=CARTESIAN_POINT('',(4.2,2.02072594216369,3.5));
#393=CARTESIAN_POINT('',(4.2,2.02072594216369,3.5));
#394=CARTESIAN_POINT('',(4.2,4.04145188432738,0.));
#395=CARTESIAN_POINT('',(4.2,-2.02072594216369,-3.5));
#396=DIRECTION('',(-1.,0.,0.));
#397=DIRECTION('',(0.,0.,4.2));
#398=DIRECTION('',(0.499999999997054,0.,-0.86602540378614));
#399=DIRECTION('',(-1.,0.,0.));
#400=DIRECTION('',(0.,0.,2.89999999998979));
#401=DIRECTION('',(-1.,0.,0.));
#402=DIRECTION('',(0.,0.,2.89999999998979));
#403=DIRECTION('',(0.,-0.866025403784439,0.5));
#404=DIRECTION('',(-1.,0.,0.));
#405=DIRECTION('',(1.,0.,0.));
#406=DIRECTION('',(0.,0.866025403784439,0.5));
#407=DIRECTION('',(-1.,0.,0.));
#408=DIRECTION('',(1.,0.,0.));
#409=DIRECTION('',(0.,0.866025403784439,-0.5));
#410=DIRECTION('',(-1.,0.,0.));
#411=DIRECTION('',(1.,0.,0.));
#412=DIRECTION('',(0.,0.,-1.621));
#413=DIRECTION('',(-0.707106781184743,0.,0.707106781188352));
#414=DIRECTION('',(-1.,0.,0.));
#415=DIRECTION('',(0.,0.,-2.00000000000193));
#416=DIRECTION('',(1.,0.,0.));
#417=DIRECTION('',(0.,0.,-1.621));
#418=DIRECTION('',(-1.,0.,0.));
#419=DIRECTION('',(0.,0.,-1.621));
#420=DIRECTION('',(1.,0.,0.));
#421=DIRECTION('',(1.,0.,0.));
#422=DIRECTION('',(0.,0.,-1.621));
#423=DIRECTION('',(1.,0.,0.));
#424=DIRECTION('',(0.,0.,-1.621));
#425=DIRECTION('',(-1.,0.,0.));
#426=DIRECTION('',(0.,0.,2.));
#427=DIRECTION('',(0.707106781184743,0.,-0.707106781188352));
#428=DIRECTION('',(1.,0.,0.));
#429=DIRECTION('',(0.,0.,2.));
#430=DIRECTION('',(1.,0.,0.));
#431=DIRECTION('',(0.,0.,2.));
#432=DIRECTION('',(-1.,0.,0.));
#433=DIRECTION('',(1.,0.,0.));
#434=DIRECTION('',(-1.,0.,0.));
#435=DIRECTION('',(0.,0.,-2.9));
#436=DIRECTION('',(1.,0.,0.));
#437=DIRECTION('',(0.,0.,-2.9));
#438=DIRECTION('',(-0.499999999997054,0.,0.86602540378614));
#439=DIRECTION('',(0.,0.,-1.));
#440=DIRECTION('',(-1.,0.,0.));
#441=DIRECTION('',(0.,-0.866025403784439,-0.5));
#442=DIRECTION('',(0.,0.,1.));
#443=CONICAL_SURFACE('',#276,4.2,1.0471975512);
#444=CONICAL_SURFACE('',#282,1.621,0.7853981634);
#445=CONICAL_SURFACE('',#288,2.,0.7853981634);
#446=CONICAL_SURFACE('',#294,2.9,1.0471975512);
#447=CLOSED_SHELL('',(#263,#264,#265,#266,#267,#268,#269,#270,#271,#272,
#273,#274,#275));
#448=MANIFOLD_SOLID_BREP('',#447);
#449=ADVANCED_BREP_SHAPE_REPRESENTATION('',(#448),#53);
ENDSEC;
END-ISO-10303-21;
