ISO-10303-21;
HEADER;

/* File generated by Alibre Version V22 */

FILE_DESCRIPTION(('HOOPS Exchange Step'),'2;1');

FILE_NAME('C:\\Users\\Gebruiker\\AppData\\Local\\Temp\\Alibre Design\\export-AC859F8B-4D9B-45D1-B21A-0C83F462FE55.stp',
'2021-04-02T10:59:11+02:00',
('Engineering'),
('Alibre'),
'HOOPS Exchange 2020.1',
'Alibre',
'Unknown authorisation');

FILE_SCHEMA( ('AP242_MANAGED_MODEL_BASED_3D_ENGINEERING_MIM_LF {1 0 10303 442 1 1 4 }') );

ENDSEC;

DATA;
#3=(NAMED_UNIT(*)PLANE_ANGLE_UNIT()SI_UNIT($,.RADIAN.));
#4=PLANE_ANGLE_MEASURE_WITH_UNIT(PLANE_ANGLE_MEASURE(0.0174532925),#3);
#5=(CONVERSION_BASED_UNIT('DEGREE',#4)NAMED_UNIT(#6)PLANE_ANGLE_UNIT());
#6=DIMENSIONAL_EXPONENTS(0.,0.,0.,0.,0.,0.,0.);
#7=(NAMED_UNIT(*)SI_UNIT($,.STERADIAN.)SOLID_ANGLE_UNIT());
#8=(LENGTH_UNIT()NAMED_UNIT(*)SI_UNIT(.MILLI.,.METRE.));
#9=UNCERTAINTY_MEASURE_WITH_UNIT(LENGTH_MEASURE(1.000000E-06),#8,'DISTANCE_ACCURACY_VALUE','Maximum Tolerance applied to model');
#10=(GEOMETRIC_REPRESENTATION_CONTEXT(3)GLOBAL_UNCERTAINTY_ASSIGNED_CONTEXT((#9))GLOBAL_UNIT_ASSIGNED_CONTEXT((#8,#5,#7))REPRESENTATION_CONTEXT('','1471 M6 nut DIN934'));
#12=CARTESIAN_POINT('',(0.,0.,0.));
#13=DIRECTION('',(0.,0.,1.));
#14=DIRECTION('',(1.,0.,0.));
#15=AXIS2_PLACEMENT_3D('',#12,#13,#14);
#27=CARTESIAN_POINT('',(4.076239569,0.,0.));
#28=DIRECTION('',(-1.,0.,0.));
#29=DIRECTION('',(0.,0.,1.));
#30=AXIS2_PLACEMENT_3D('',#27,#28,#29);
#31=CONICAL_SURFACE('',#30,6.,60.);
#32=CARTESIAN_POINT('',(4.653589838,0.,-5.));
#33=VERTEX_POINT('',#32);
#34=CARTESIAN_POINT('',(5.,-0.,-4.4));
#35=VERTEX_POINT('',#34);
#36=CARTESIAN_POINT('',(4.653589838,0.,-5.));
#37=DIRECTION('',(0.5,-0.,0.866025404));
#38=VECTOR('',#37,0.692820323);
#39=LINE('',#36,#38);
#40=EDGE_CURVE('',#33,#35,#39,.T.);
#41=ORIENTED_EDGE('',*,*,#40,.T.);
#42=CARTESIAN_POINT('',(5.,0.,4.4));
#43=VERTEX_POINT('',#42);
#44=CARTESIAN_POINT('',(5.,0.,0.));
#45=DIRECTION('',(1.,-0.,-0.));
#46=DIRECTION('',(0.,0.,1.));
#47=AXIS2_PLACEMENT_3D('',#44,#45,#46);
#48=CIRCLE('',#47,4.4);
#49=EDGE_CURVE('',#43,#35,#48,.T.);
#50=ORIENTED_EDGE('',*,*,#49,.F.);
#51=CARTESIAN_POINT('',(4.653589838,0.,5.));
#52=VERTEX_POINT('',#51);
#53=CARTESIAN_POINT('',(4.653589838,0.,5.));
#54=DIRECTION('',(0.5,0.,-0.866025404));
#55=VECTOR('',#54,0.692820323);
#56=LINE('',#53,#55);
#57=EDGE_CURVE('',#52,#43,#56,.T.);
#58=ORIENTED_EDGE('',*,*,#57,.F.);
#59=CARTESIAN_POINT('',(4.207007851,-2.886751346,5.));
#60=VERTEX_POINT('',#59);
#61=CARTESIAN_POINT('',(4.653589838,0.,5.));
#62=CARTESIAN_POINT('',(4.653589838,-1.339745962,5.));
#63=CARTESIAN_POINT('',(4.207007851,-2.886751346,5.));
#64=(BOUNDED_CURVE()
B_SPLINE_CURVE(2,(#61,#62,#63),.UNSPECIFIED.,.F.,.F.)
B_SPLINE_CURVE_WITH_KNOTS((3,3),(3.027071807,5.964378632),.UNSPECIFIED.)
CURVE()
GEOMETRIC_REPRESENTATION_ITEM()
RATIONAL_B_SPLINE_CURVE((1.082546422,1.082546422,1.004823085))
REPRESENTATION_ITEM(''));
#65=EDGE_CURVE('',#52,#60,#64,.T.);
#66=ORIENTED_EDGE('',*,*,#65,.T.);
#67=CARTESIAN_POINT('',(4.207007851,-5.773502692,-0.));
#68=VERTEX_POINT('',#67);
#69=CARTESIAN_POINT('',(4.207007851,-2.886751346,5.));
#70=CARTESIAN_POINT('',(5.040341184,-4.330127019,2.5));
#71=CARTESIAN_POINT('',(4.207007851,-5.773502692,0.));
#72=(BOUNDED_CURVE()
B_SPLINE_CURVE(2,(#69,#70,#71),.UNSPECIFIED.,.F.,.F.)
B_SPLINE_CURVE_WITH_KNOTS((3,3),(0.089764982,5.964378632),.UNSPECIFIED.)
CURVE()
GEOMETRIC_REPRESENTATION_ITEM()
RATIONAL_B_SPLINE_CURVE((1.004823085,1.160269758,1.004823085))
REPRESENTATION_ITEM(''));
#73=EDGE_CURVE('',#60,#68,#72,.T.);
#74=ORIENTED_EDGE('',*,*,#73,.T.);
#75=CARTESIAN_POINT('',(4.207007851,-2.886751346,-5.));
#76=VERTEX_POINT('',#75);
#77=CARTESIAN_POINT('',(4.207007851,-5.773502692,-0.));
#78=CARTESIAN_POINT('',(5.040341184,-4.330127019,-2.5));
#79=CARTESIAN_POINT('',(4.207007851,-2.886751346,-5.));
#80=(BOUNDED_CURVE()
B_SPLINE_CURVE(2,(#77,#78,#79),.UNSPECIFIED.,.F.,.F.)
B_SPLINE_CURVE_WITH_KNOTS((3,3),(0.089764982,5.964378632),.UNSPECIFIED.)
CURVE()
GEOMETRIC_REPRESENTATION_ITEM()
RATIONAL_B_SPLINE_CURVE((1.004823085,1.160269758,1.004823085))
REPRESENTATION_ITEM(''));
#81=EDGE_CURVE('',#68,#76,#80,.T.);
#82=ORIENTED_EDGE('',*,*,#81,.T.);
#83=CARTESIAN_POINT('',(4.207007851,-2.886751346,-5.));
#84=CARTESIAN_POINT('',(5.040341184,-0.,-5.));
#85=CARTESIAN_POINT('',(4.207007851,2.886751346,-5.));
#86=(BOUNDED_CURVE()
B_SPLINE_CURVE(2,(#83,#84,#85),.UNSPECIFIED.,.F.,.F.)
B_SPLINE_CURVE_WITH_KNOTS((3,3),(0.089764982,5.964378632),.UNSPECIFIED.)
CURVE()
GEOMETRIC_REPRESENTATION_ITEM()
RATIONAL_B_SPLINE_CURVE((1.004823085,1.160269758,1.004823085))
REPRESENTATION_ITEM(''));
#87=EDGE_CURVE('',#76,#33,#86,.T.);
#88=ORIENTED_EDGE('',*,*,#87,.T.);
#89=EDGE_LOOP('',(#41,#50,#58,#66,#74,#82,#88));
#90=FACE_BOUND('',#89,.T.);
#91=ADVANCED_FACE('',(#90),#31,.T.);
#92=CARTESIAN_POINT('',(6.,2.886751346,-5.));
#93=DIRECTION('',(0.,-0.866025404,0.5));
#94=DIRECTION('',(0.,-0.5,-0.866025404));
#95=AXIS2_PLACEMENT_3D('',#92,#93,#94);
#96=PLANE('',#95);
#97=CARTESIAN_POINT('',(4.207007851,2.886751346,-5.));
#98=VERTEX_POINT('',#97);
#99=CARTESIAN_POINT('',(0.792992149,2.886751346,-5.));
#100=VERTEX_POINT('',#99);
#101=CARTESIAN_POINT('',(12351.,2.886751346,-5.));
#102=DIRECTION('',(-1.,0.,0.));
#103=VECTOR('',#102,24690.);
#104=LINE('',#101,#103);
#105=EDGE_CURVE('',#98,#100,#104,.T.);
#106=ORIENTED_EDGE('',*,*,#105,.T.);
#107=CARTESIAN_POINT('',(0.792992149,5.773502692,0.));
#108=VERTEX_POINT('',#107);
#109=CARTESIAN_POINT('',(0.792992149,5.773502692,-0.));
#110=CARTESIAN_POINT('',(-0.040341184,4.330127019,-2.5));
#111=CARTESIAN_POINT('',(0.792992149,2.886751346,-5.));
#112=(BOUNDED_CURVE()
B_SPLINE_CURVE(2,(#109,#110,#111),.UNSPECIFIED.,.F.,.F.)
B_SPLINE_CURVE_WITH_KNOTS((3,3),(0.089764982,5.964378632),.UNSPECIFIED.)
CURVE()
GEOMETRIC_REPRESENTATION_ITEM()
RATIONAL_B_SPLINE_CURVE((1.004823085,1.160269758,1.004823085))
REPRESENTATION_ITEM(''));
#113=EDGE_CURVE('',#108,#100,#112,.T.);
#114=ORIENTED_EDGE('',*,*,#113,.F.);
#115=CARTESIAN_POINT('',(4.207007851,5.773502692,0.));
#116=VERTEX_POINT('',#115);
#117=CARTESIAN_POINT('',(12351.,5.773502692,0.));
#118=DIRECTION('',(-1.,-0.,0.));
#119=VECTOR('',#118,24690.);
#120=LINE('',#117,#119);
#121=EDGE_CURVE('',#116,#108,#120,.T.);
#122=ORIENTED_EDGE('',*,*,#121,.F.);
#123=CARTESIAN_POINT('',(4.207007851,2.886751346,-5.));
#124=CARTESIAN_POINT('',(5.040341184,4.330127019,-2.5));
#125=CARTESIAN_POINT('',(4.207007851,5.773502692,-0.));
#126=(BOUNDED_CURVE()
B_SPLINE_CURVE(2,(#123,#124,#125),.UNSPECIFIED.,.F.,.F.)
B_SPLINE_CURVE_WITH_KNOTS((3,3),(0.089764982,5.964378632),.UNSPECIFIED.)
CURVE()
GEOMETRIC_REPRESENTATION_ITEM()
RATIONAL_B_SPLINE_CURVE((1.004823085,1.160269758,1.004823085))
REPRESENTATION_ITEM(''));
#127=EDGE_CURVE('',#98,#116,#126,.T.);
#128=ORIENTED_EDGE('',*,*,#127,.F.);
#129=EDGE_LOOP('',(#106,#114,#122,#128));
#130=FACE_BOUND('',#129,.T.);
#131=ADVANCED_FACE('',(#130),#96,.F.);
#132=CARTESIAN_POINT('',(6.,-5.773502692,0.));
#133=DIRECTION('',(0.,0.866025404,0.5));
#134=DIRECTION('',(0.,-0.5,0.866025404));
#135=AXIS2_PLACEMENT_3D('',#132,#133,#134);
#136=PLANE('',#135);
#137=CARTESIAN_POINT('',(0.792992149,-5.773502692,-0.));
#138=VERTEX_POINT('',#137);
#139=CARTESIAN_POINT('',(12351.,-5.773502692,-0.));
#140=DIRECTION('',(-1.,0.,0.));
#141=VECTOR('',#140,24690.);
#142=LINE('',#139,#141);
#143=EDGE_CURVE('',#68,#138,#142,.T.);
#144=ORIENTED_EDGE('',*,*,#143,.T.);
#145=CARTESIAN_POINT('',(0.792992149,-2.886751346,-5.));
#146=VERTEX_POINT('',#145);
#147=CARTESIAN_POINT('',(0.792992149,-2.886751346,-5.));
#148=CARTESIAN_POINT('',(-0.040341184,-4.330127019,-2.5));
#149=CARTESIAN_POINT('',(0.792992149,-5.773502692,-0.));
#150=(BOUNDED_CURVE()
B_SPLINE_CURVE(2,(#147,#148,#149),.UNSPECIFIED.,.F.,.F.)
B_SPLINE_CURVE_WITH_KNOTS((3,3),(0.089764982,5.964378632),.UNSPECIFIED.)
CURVE()
GEOMETRIC_REPRESENTATION_ITEM()
RATIONAL_B_SPLINE_CURVE((1.004823085,1.160269758,1.004823085))
REPRESENTATION_ITEM(''));
#151=EDGE_CURVE('',#146,#138,#150,.T.);
#152=ORIENTED_EDGE('',*,*,#151,.F.);
#153=CARTESIAN_POINT('',(12351.,-2.886751346,-5.));
#154=DIRECTION('',(-1.,-0.,0.));
#155=VECTOR('',#154,24690.);
#156=LINE('',#153,#155);
#157=EDGE_CURVE('',#76,#146,#156,.T.);
#158=ORIENTED_EDGE('',*,*,#157,.F.);
#159=ORIENTED_EDGE('',*,*,#81,.F.);
#160=EDGE_LOOP('',(#144,#152,#158,#159));
#161=FACE_BOUND('',#160,.T.);
#162=ADVANCED_FACE('',(#161),#136,.F.);
#163=CARTESIAN_POINT('',(6.,-2.886751346,5.));
#164=DIRECTION('',(0.,0.866025404,-0.5));
#165=DIRECTION('',(0.,0.5,0.866025404));
#166=AXIS2_PLACEMENT_3D('',#163,#164,#165);
#167=PLANE('',#166);
#168=CARTESIAN_POINT('',(0.792992149,-2.886751346,5.));
#169=VERTEX_POINT('',#168);
#170=CARTESIAN_POINT('',(12351.,-2.886751346,5.));
#171=DIRECTION('',(-1.,0.,0.));
#172=VECTOR('',#171,24690.);
#173=LINE('',#170,#172);
#174=EDGE_CURVE('',#60,#169,#173,.T.);
#175=ORIENTED_EDGE('',*,*,#174,.T.);
#176=CARTESIAN_POINT('',(0.792992149,-5.773502692,0.));
#177=CARTESIAN_POINT('',(-0.040341184,-4.330127019,2.5));
#178=CARTESIAN_POINT('',(0.792992149,-2.886751346,5.));
#179=(BOUNDED_CURVE()
B_SPLINE_CURVE(2,(#176,#177,#178),.UNSPECIFIED.,.F.,.F.)
B_SPLINE_CURVE_WITH_KNOTS((3,3),(0.089764982,5.964378632),.UNSPECIFIED.)
CURVE()
GEOMETRIC_REPRESENTATION_ITEM()
RATIONAL_B_SPLINE_CURVE((1.004823085,1.160269758,1.004823085))
REPRESENTATION_ITEM(''));
#180=EDGE_CURVE('',#138,#169,#179,.T.);
#181=ORIENTED_EDGE('',*,*,#180,.F.);
#182=ORIENTED_EDGE('',*,*,#143,.F.);
#183=ORIENTED_EDGE('',*,*,#73,.F.);
#184=EDGE_LOOP('',(#175,#181,#182,#183));
#185=FACE_BOUND('',#184,.T.);
#186=ADVANCED_FACE('',(#185),#167,.F.);
#187=CARTESIAN_POINT('',(4.4585,0.,0.));
#188=DIRECTION('',(1.,0.,-0.));
#189=DIRECTION('',(-0.,0.,-1.));
#190=AXIS2_PLACEMENT_3D('',#187,#188,#189);
#191=CONICAL_SURFACE('',#190,2.4585,45.);
#192=CARTESIAN_POINT('',(5.,-0.,3.));
#193=VERTEX_POINT('',#192);
#194=CARTESIAN_POINT('',(4.4585,0.,2.4585));
#195=VERTEX_POINT('',#194);
#196=CARTESIAN_POINT('',(5.,0.,3.));
#197=DIRECTION('',(-0.707106781,-0.,-0.707106781));
#198=VECTOR('',#197,0.765796644);
#199=LINE('',#196,#198);
#200=EDGE_CURVE('',#193,#195,#199,.T.);
#201=ORIENTED_EDGE('',*,*,#200,.F.);
#202=CARTESIAN_POINT('',(5.,-0.,-3.));
#203=VERTEX_POINT('',#202);
#204=CARTESIAN_POINT('',(5.,0.,0.));
#205=DIRECTION('',(1.,-0.,-0.));
#206=DIRECTION('',(0.,0.,-1.));
#207=AXIS2_PLACEMENT_3D('',#204,#205,#206);
#208=CIRCLE('',#207,3.);
#209=EDGE_CURVE('',#193,#203,#208,.T.);
#210=ORIENTED_EDGE('',*,*,#209,.T.);
#211=CARTESIAN_POINT('',(4.4585,-0.,-2.4585));
#212=VERTEX_POINT('',#211);
#213=CARTESIAN_POINT('',(5.,0.,-3.));
#214=DIRECTION('',(-0.707106781,-0.,0.707106781));
#215=VECTOR('',#214,0.765796644);
#216=LINE('',#213,#215);
#217=EDGE_CURVE('',#203,#212,#216,.T.);
#218=ORIENTED_EDGE('',*,*,#217,.T.);
#219=CARTESIAN_POINT('',(4.4585,0.,0.));
#220=DIRECTION('',(1.,0.,-0.));
#221=DIRECTION('',(-0.,0.,-1.));
#222=AXIS2_PLACEMENT_3D('',#219,#220,#221);
#223=CIRCLE('',#222,2.4585);
#224=EDGE_CURVE('',#195,#212,#223,.T.);
#225=ORIENTED_EDGE('',*,*,#224,.F.);
#226=EDGE_LOOP('',(#201,#210,#218,#225));
#227=FACE_BOUND('',#226,.T.);
#228=ADVANCED_FACE('',(#227),#191,.F.);
#229=CARTESIAN_POINT('',(5.,0.,0.));
#230=DIRECTION('',(-1.,-0.,0.));
#231=DIRECTION('',(-0.,0.,-1.));
#232=AXIS2_PLACEMENT_3D('',#229,#230,#231);
#233=CYLINDRICAL_SURFACE('',#232,2.4585);
#234=CARTESIAN_POINT('',(0.5415,0.,2.4585));
#235=VERTEX_POINT('',#234);
#236=CARTESIAN_POINT('',(0.5415,-0.,2.4585));
#237=DIRECTION('',(1.,-0.,-0.));
#238=VECTOR('',#237,3.917);
#239=LINE('',#236,#238);
#240=EDGE_CURVE('',#235,#195,#239,.T.);
#241=ORIENTED_EDGE('',*,*,#240,.F.);
#242=CARTESIAN_POINT('',(0.5415,0.,-2.4585));
#243=VERTEX_POINT('',#242);
#244=CARTESIAN_POINT('',(0.5415,0.,0.));
#245=DIRECTION('',(1.,0.,-0.));
#246=DIRECTION('',(-0.,0.,-1.));
#247=AXIS2_PLACEMENT_3D('',#244,#245,#246);
#248=CIRCLE('',#247,2.4585);
#249=EDGE_CURVE('',#243,#235,#248,.T.);
#250=ORIENTED_EDGE('',*,*,#249,.F.);
#251=CARTESIAN_POINT('',(0.5415,0.,-2.4585));
#252=DIRECTION('',(1.,0.,-0.));
#253=VECTOR('',#252,3.917);
#254=LINE('',#251,#253);
#255=EDGE_CURVE('',#243,#212,#254,.T.);
#256=ORIENTED_EDGE('',*,*,#255,.T.);
#257=CARTESIAN_POINT('',(4.4585,0.,0.));
#258=DIRECTION('',(1.,0.,-0.));
#259=DIRECTION('',(-0.,0.,-1.));
#260=AXIS2_PLACEMENT_3D('',#257,#258,#259);
#261=CIRCLE('',#260,2.4585);
#262=EDGE_CURVE('',#212,#195,#261,.T.);
#263=ORIENTED_EDGE('',*,*,#262,.T.);
#264=EDGE_LOOP('',(#241,#250,#256,#263));
#265=FACE_BOUND('',#264,.T.);
#266=ADVANCED_FACE('',(#265),#233,.F.);
#267=CARTESIAN_POINT('',(0.,0.,0.));
#268=DIRECTION('',(-1.,0.,0.));
#269=DIRECTION('',(0.,0.,1.));
#270=AXIS2_PLACEMENT_3D('',#267,#268,#269);
#271=CONICAL_SURFACE('',#270,3.,45.);
#272=CARTESIAN_POINT('',(0.,-0.,-3.));
#273=VERTEX_POINT('',#272);
#274=CARTESIAN_POINT('',(0.,0.,-3.));
#275=DIRECTION('',(0.707106781,-0.,0.707106781));
#276=VECTOR('',#275,0.765796644);
#277=LINE('',#274,#276);
#278=EDGE_CURVE('',#273,#243,#277,.T.);
#279=ORIENTED_EDGE('',*,*,#278,.F.);
#280=CARTESIAN_POINT('',(0.,0.,3.));
#281=VERTEX_POINT('',#280);
#282=CARTESIAN_POINT('',(0.,0.,0.));
#283=DIRECTION('',(1.,0.,-0.));
#284=DIRECTION('',(0.,0.,1.));
#285=AXIS2_PLACEMENT_3D('',#282,#283,#284);
#286=CIRCLE('',#285,3.);
#287=EDGE_CURVE('',#281,#273,#286,.T.);
#288=ORIENTED_EDGE('',*,*,#287,.F.);
#289=CARTESIAN_POINT('',(-0.,0.,3.));
#290=DIRECTION('',(0.707106781,0.,-0.707106781));
#291=VECTOR('',#290,0.765796644);
#292=LINE('',#289,#291);
#293=EDGE_CURVE('',#281,#235,#292,.T.);
#294=ORIENTED_EDGE('',*,*,#293,.T.);
#295=CARTESIAN_POINT('',(0.5415,0.,0.));
#296=DIRECTION('',(1.,0.,-0.));
#297=DIRECTION('',(-0.,0.,-1.));
#298=AXIS2_PLACEMENT_3D('',#295,#296,#297);
#299=CIRCLE('',#298,2.4585);
#300=EDGE_CURVE('',#235,#243,#299,.T.);
#301=ORIENTED_EDGE('',*,*,#300,.T.);
#302=EDGE_LOOP('',(#279,#288,#294,#301));
#303=FACE_BOUND('',#302,.T.);
#304=ADVANCED_FACE('',(#303),#271,.F.);
#305=CARTESIAN_POINT('',(5.,6.,0.));
#306=DIRECTION('',(-1.,0.,0.));
#307=DIRECTION('',(0.,0.,1.));
#308=AXIS2_PLACEMENT_3D('',#305,#306,#307);
#309=PLANE('',#308);
#310=ORIENTED_EDGE('',*,*,#209,.F.);
#311=CARTESIAN_POINT('',(5.,0.,0.));
#312=DIRECTION('',(1.,-0.,-0.));
#313=DIRECTION('',(0.,0.,-1.));
#314=AXIS2_PLACEMENT_3D('',#311,#312,#313);
#315=CIRCLE('',#314,3.);
#316=EDGE_CURVE('',#203,#193,#315,.T.);
#317=ORIENTED_EDGE('',*,*,#316,.F.);
#318=EDGE_LOOP('',(#310,#317));
#319=FACE_BOUND('',#318,.T.);
#320=CARTESIAN_POINT('',(5.,0.,0.));
#321=DIRECTION('',(1.,-0.,-0.));
#322=DIRECTION('',(0.,0.,1.));
#323=AXIS2_PLACEMENT_3D('',#320,#321,#322);
#324=CIRCLE('',#323,4.4);
#325=EDGE_CURVE('',#35,#43,#324,.T.);
#326=ORIENTED_EDGE('',*,*,#325,.T.);
#327=ORIENTED_EDGE('',*,*,#49,.T.);
#328=EDGE_LOOP('',(#326,#327));
#329=FACE_BOUND('',#328,.T.);
#330=ADVANCED_FACE('',(#319,#329),#309,.F.);
#331=CARTESIAN_POINT('',(0.,0.,0.));
#332=DIRECTION('',(1.,0.,0.));
#333=DIRECTION('',(0.,0.,-1.));
#334=AXIS2_PLACEMENT_3D('',#331,#332,#333);
#335=PLANE('',#334);
#336=CARTESIAN_POINT('',(0.,-0.,4.4));
#337=VERTEX_POINT('',#336);
#338=CARTESIAN_POINT('',(-0.,-0.,-4.4));
#339=VERTEX_POINT('',#338);
#340=CARTESIAN_POINT('',(0.,0.,0.));
#341=DIRECTION('',(1.,0.,-0.));
#342=DIRECTION('',(-0.,0.,-1.));
#343=AXIS2_PLACEMENT_3D('',#340,#341,#342);
#344=CIRCLE('',#343,4.4);
#345=EDGE_CURVE('',#337,#339,#344,.T.);
#346=ORIENTED_EDGE('',*,*,#345,.F.);
#347=CARTESIAN_POINT('',(0.,0.,0.));
#348=DIRECTION('',(1.,0.,-0.));
#349=DIRECTION('',(-0.,0.,-1.));
#350=AXIS2_PLACEMENT_3D('',#347,#348,#349);
#351=CIRCLE('',#350,4.4);
#352=EDGE_CURVE('',#339,#337,#351,.T.);
#353=ORIENTED_EDGE('',*,*,#352,.F.);
#354=EDGE_LOOP('',(#346,#353));
#355=FACE_BOUND('',#354,.T.);
#356=CARTESIAN_POINT('',(0.,0.,0.));
#357=DIRECTION('',(1.,0.,-0.));
#358=DIRECTION('',(0.,0.,1.));
#359=AXIS2_PLACEMENT_3D('',#356,#357,#358);
#360=CIRCLE('',#359,3.);
#361=EDGE_CURVE('',#273,#281,#360,.T.);
#362=ORIENTED_EDGE('',*,*,#361,.T.);
#363=ORIENTED_EDGE('',*,*,#287,.T.);
#364=EDGE_LOOP('',(#362,#363));
#365=FACE_BOUND('',#364,.T.);
#366=ADVANCED_FACE('',(#355,#365),#335,.F.);
#367=CARTESIAN_POINT('',(0.,0.,0.));
#368=DIRECTION('',(1.,0.,-0.));
#369=DIRECTION('',(-0.,0.,-1.));
#370=AXIS2_PLACEMENT_3D('',#367,#368,#369);
#371=CONICAL_SURFACE('',#370,4.4,60.);
#372=CARTESIAN_POINT('',(0.346410162,0.,5.));
#373=VERTEX_POINT('',#372);
#374=CARTESIAN_POINT('',(0.346410162,0.,5.));
#375=DIRECTION('',(-0.5,-0.,-0.866025404));
#376=VECTOR('',#375,0.692820323);
#377=LINE('',#374,#376);
#378=EDGE_CURVE('',#373,#337,#377,.T.);
#379=ORIENTED_EDGE('',*,*,#378,.T.);
#380=ORIENTED_EDGE('',*,*,#345,.T.);
#381=CARTESIAN_POINT('',(0.346410162,0.,-5.));
#382=VERTEX_POINT('',#381);
#383=CARTESIAN_POINT('',(0.346410162,0.,-5.));
#384=DIRECTION('',(-0.5,-0.,0.866025404));
#385=VECTOR('',#384,0.692820323);
#386=LINE('',#383,#385);
#387=EDGE_CURVE('',#382,#339,#386,.T.);
#388=ORIENTED_EDGE('',*,*,#387,.F.);
#389=CARTESIAN_POINT('',(0.346410162,0.,-5.));
#390=CARTESIAN_POINT('',(0.346410162,-1.339745962,-5.));
#391=CARTESIAN_POINT('',(0.792992149,-2.886751346,-5.));
#392=(BOUNDED_CURVE()
B_SPLINE_CURVE(2,(#389,#390,#391),.UNSPECIFIED.,.F.,.F.)
B_SPLINE_CURVE_WITH_KNOTS((3,3),(3.027071807,5.964378632),.UNSPECIFIED.)
CURVE()
GEOMETRIC_REPRESENTATION_ITEM()
RATIONAL_B_SPLINE_CURVE((1.082546422,1.082546422,1.004823085))
REPRESENTATION_ITEM(''));
#393=EDGE_CURVE('',#382,#146,#392,.T.);
#394=ORIENTED_EDGE('',*,*,#393,.T.);
#395=ORIENTED_EDGE('',*,*,#151,.T.);
#396=ORIENTED_EDGE('',*,*,#180,.T.);
#397=CARTESIAN_POINT('',(0.792992149,-2.886751346,5.));
#398=CARTESIAN_POINT('',(-0.040341184,0.,5.));
#399=CARTESIAN_POINT('',(0.792992149,2.886751346,5.));
#400=(BOUNDED_CURVE()
B_SPLINE_CURVE(2,(#397,#398,#399),.UNSPECIFIED.,.F.,.F.)
B_SPLINE_CURVE_WITH_KNOTS((3,3),(0.089764982,5.964378632),.UNSPECIFIED.)
CURVE()
GEOMETRIC_REPRESENTATION_ITEM()
RATIONAL_B_SPLINE_CURVE((1.004823085,1.160269758,1.004823085))
REPRESENTATION_ITEM(''));
#401=EDGE_CURVE('',#169,#373,#400,.T.);
#402=ORIENTED_EDGE('',*,*,#401,.T.);
#403=EDGE_LOOP('',(#379,#380,#388,#394,#395,#396,#402));
#404=FACE_BOUND('',#403,.T.);
#405=ADVANCED_FACE('',(#404),#371,.T.);
#406=CARTESIAN_POINT('',(6.,2.886751346,5.));
#407=DIRECTION('',(0.,0.,-1.));
#408=DIRECTION('',(-1.,0.,0.));
#409=AXIS2_PLACEMENT_3D('',#406,#407,#408);
#410=PLANE('',#409);
#411=CARTESIAN_POINT('',(4.207007851,2.886751346,5.));
#412=VERTEX_POINT('',#411);
#413=CARTESIAN_POINT('',(0.792992149,2.886751346,5.));
#414=VERTEX_POINT('',#413);
#415=CARTESIAN_POINT('',(12351.,2.886751346,5.));
#416=DIRECTION('',(-1.,0.,0.));
#417=VECTOR('',#416,24690.);
#418=LINE('',#415,#417);
#419=EDGE_CURVE('',#412,#414,#418,.T.);
#420=ORIENTED_EDGE('',*,*,#419,.T.);
#421=CARTESIAN_POINT('',(0.792992149,-2.886751346,5.));
#422=CARTESIAN_POINT('',(-0.040341184,0.,5.));
#423=CARTESIAN_POINT('',(0.792992149,2.886751346,5.));
#424=(BOUNDED_CURVE()
B_SPLINE_CURVE(2,(#421,#422,#423),.UNSPECIFIED.,.F.,.F.)
B_SPLINE_CURVE_WITH_KNOTS((3,3),(0.089764982,5.964378632),.UNSPECIFIED.)
CURVE()
GEOMETRIC_REPRESENTATION_ITEM()
RATIONAL_B_SPLINE_CURVE((1.004823085,1.160269758,1.004823085))
REPRESENTATION_ITEM(''));
#425=EDGE_CURVE('',#373,#414,#424,.T.);
#426=ORIENTED_EDGE('',*,*,#425,.F.);
#427=ORIENTED_EDGE('',*,*,#401,.F.);
#428=ORIENTED_EDGE('',*,*,#174,.F.);
#429=ORIENTED_EDGE('',*,*,#65,.F.);
#430=CARTESIAN_POINT('',(4.207007851,2.886751346,5.));
#431=CARTESIAN_POINT('',(4.653589838,1.339745962,5.));
#432=CARTESIAN_POINT('',(4.653589838,0.,5.));
#433=(BOUNDED_CURVE()
B_SPLINE_CURVE(2,(#430,#431,#432),.UNSPECIFIED.,.F.,.F.)
B_SPLINE_CURVE_WITH_KNOTS((3,3),(0.089764982,3.027071807),.UNSPECIFIED.)
CURVE()
GEOMETRIC_REPRESENTATION_ITEM()
RATIONAL_B_SPLINE_CURVE((1.004823085,1.082546422,1.082546422))
REPRESENTATION_ITEM(''));
#434=EDGE_CURVE('',#412,#52,#433,.T.);
#435=ORIENTED_EDGE('',*,*,#434,.F.);
#436=EDGE_LOOP('',(#420,#426,#427,#428,#429,#435));
#437=FACE_BOUND('',#436,.T.);
#438=ADVANCED_FACE('',(#437),#410,.F.);
#439=CARTESIAN_POINT('',(6.,5.773502692,0.));
#440=DIRECTION('',(0.,-0.866025404,-0.5));
#441=DIRECTION('',(0.,0.5,-0.866025404));
#442=AXIS2_PLACEMENT_3D('',#439,#440,#441);
#443=PLANE('',#442);
#444=ORIENTED_EDGE('',*,*,#121,.T.);
#445=CARTESIAN_POINT('',(0.792992149,2.886751346,5.));
#446=CARTESIAN_POINT('',(-0.040341184,4.330127019,2.5));
#447=CARTESIAN_POINT('',(0.792992149,5.773502692,0.));
#448=(BOUNDED_CURVE()
B_SPLINE_CURVE(2,(#445,#446,#447),.UNSPECIFIED.,.F.,.F.)
B_SPLINE_CURVE_WITH_KNOTS((3,3),(0.089764982,5.964378632),.UNSPECIFIED.)
CURVE()
GEOMETRIC_REPRESENTATION_ITEM()
RATIONAL_B_SPLINE_CURVE((1.004823085,1.160269758,1.004823085))
REPRESENTATION_ITEM(''));
#449=EDGE_CURVE('',#414,#108,#448,.T.);
#450=ORIENTED_EDGE('',*,*,#449,.F.);
#451=ORIENTED_EDGE('',*,*,#419,.F.);
#452=CARTESIAN_POINT('',(4.207007851,5.773502692,0.));
#453=CARTESIAN_POINT('',(5.040341184,4.330127019,2.5));
#454=CARTESIAN_POINT('',(4.207007851,2.886751346,5.));
#455=(BOUNDED_CURVE()
B_SPLINE_CURVE(2,(#452,#453,#454),.UNSPECIFIED.,.F.,.F.)
B_SPLINE_CURVE_WITH_KNOTS((3,3),(0.089764982,5.964378632),.UNSPECIFIED.)
CURVE()
GEOMETRIC_REPRESENTATION_ITEM()
RATIONAL_B_SPLINE_CURVE((1.004823085,1.160269758,1.004823085))
REPRESENTATION_ITEM(''));
#456=EDGE_CURVE('',#116,#412,#455,.T.);
#457=ORIENTED_EDGE('',*,*,#456,.F.);
#458=EDGE_LOOP('',(#444,#450,#451,#457));
#459=FACE_BOUND('',#458,.T.);
#460=ADVANCED_FACE('',(#459),#443,.F.);
#461=CARTESIAN_POINT('',(6.,-2.886751346,-5.));
#462=DIRECTION('',(0.,0.,1.));
#463=DIRECTION('',(1.,0.,0.));
#464=AXIS2_PLACEMENT_3D('',#461,#462,#463);
#465=PLANE('',#464);
#466=ORIENTED_EDGE('',*,*,#157,.T.);
#467=ORIENTED_EDGE('',*,*,#393,.F.);
#468=CARTESIAN_POINT('',(0.792992149,2.886751346,-5.));
#469=CARTESIAN_POINT('',(0.346410162,1.339745962,-5.));
#470=CARTESIAN_POINT('',(0.346410162,0.,-5.));
#471=(BOUNDED_CURVE()
B_SPLINE_CURVE(2,(#468,#469,#470),.UNSPECIFIED.,.F.,.F.)
B_SPLINE_CURVE_WITH_KNOTS((3,3),(0.089764982,3.027071807),.UNSPECIFIED.)
CURVE()
GEOMETRIC_REPRESENTATION_ITEM()
RATIONAL_B_SPLINE_CURVE((1.004823085,1.082546422,1.082546422))
REPRESENTATION_ITEM(''));
#472=EDGE_CURVE('',#100,#382,#471,.T.);
#473=ORIENTED_EDGE('',*,*,#472,.F.);
#474=ORIENTED_EDGE('',*,*,#105,.F.);
#475=CARTESIAN_POINT('',(4.207007851,-2.886751346,-5.));
#476=CARTESIAN_POINT('',(5.040341184,-0.,-5.));
#477=CARTESIAN_POINT('',(4.207007851,2.886751346,-5.));
#478=(BOUNDED_CURVE()
B_SPLINE_CURVE(2,(#475,#476,#477),.UNSPECIFIED.,.F.,.F.)
B_SPLINE_CURVE_WITH_KNOTS((3,3),(0.089764982,5.964378632),.UNSPECIFIED.)
CURVE()
GEOMETRIC_REPRESENTATION_ITEM()
RATIONAL_B_SPLINE_CURVE((1.004823085,1.160269758,1.004823085))
REPRESENTATION_ITEM(''));
#479=EDGE_CURVE('',#33,#98,#478,.T.);
#480=ORIENTED_EDGE('',*,*,#479,.F.);
#481=ORIENTED_EDGE('',*,*,#87,.F.);
#482=EDGE_LOOP('',(#466,#467,#473,#474,#480,#481));
#483=FACE_BOUND('',#482,.T.);
#484=ADVANCED_FACE('',(#483),#465,.F.);
#485=CARTESIAN_POINT('',(4.076239569,0.,0.));
#486=DIRECTION('',(-1.,0.,0.));
#487=DIRECTION('',(0.,0.,1.));
#488=AXIS2_PLACEMENT_3D('',#485,#486,#487);
#489=CONICAL_SURFACE('',#488,6.,60.);
#490=ORIENTED_EDGE('',*,*,#40,.F.);
#491=ORIENTED_EDGE('',*,*,#479,.T.);
#492=ORIENTED_EDGE('',*,*,#127,.T.);
#493=ORIENTED_EDGE('',*,*,#456,.T.);
#494=ORIENTED_EDGE('',*,*,#434,.T.);
#495=ORIENTED_EDGE('',*,*,#57,.T.);
#496=ORIENTED_EDGE('',*,*,#325,.F.);
#497=EDGE_LOOP('',(#490,#491,#492,#493,#494,#495,#496));
#498=FACE_BOUND('',#497,.T.);
#499=ADVANCED_FACE('',(#498),#489,.T.);
#500=CARTESIAN_POINT('',(4.4585,0.,0.));
#501=DIRECTION('',(1.,0.,-0.));
#502=DIRECTION('',(-0.,0.,-1.));
#503=AXIS2_PLACEMENT_3D('',#500,#501,#502);
#504=CONICAL_SURFACE('',#503,2.4585,45.);
#505=ORIENTED_EDGE('',*,*,#200,.T.);
#506=ORIENTED_EDGE('',*,*,#262,.F.);
#507=ORIENTED_EDGE('',*,*,#217,.F.);
#508=ORIENTED_EDGE('',*,*,#316,.T.);
#509=EDGE_LOOP('',(#505,#506,#507,#508));
#510=FACE_BOUND('',#509,.T.);
#511=ADVANCED_FACE('',(#510),#504,.F.);
#512=CARTESIAN_POINT('',(5.,0.,0.));
#513=DIRECTION('',(-1.,-0.,0.));
#514=DIRECTION('',(-0.,0.,-1.));
#515=AXIS2_PLACEMENT_3D('',#512,#513,#514);
#516=CYLINDRICAL_SURFACE('',#515,2.4585);
#517=ORIENTED_EDGE('',*,*,#240,.T.);
#518=ORIENTED_EDGE('',*,*,#224,.T.);
#519=ORIENTED_EDGE('',*,*,#255,.F.);
#520=ORIENTED_EDGE('',*,*,#300,.F.);
#521=EDGE_LOOP('',(#517,#518,#519,#520));
#522=FACE_BOUND('',#521,.T.);
#523=ADVANCED_FACE('',(#522),#516,.F.);
#524=CARTESIAN_POINT('',(0.,0.,0.));
#525=DIRECTION('',(-1.,0.,0.));
#526=DIRECTION('',(0.,0.,1.));
#527=AXIS2_PLACEMENT_3D('',#524,#525,#526);
#528=CONICAL_SURFACE('',#527,3.,45.);
#529=ORIENTED_EDGE('',*,*,#278,.T.);
#530=ORIENTED_EDGE('',*,*,#249,.T.);
#531=ORIENTED_EDGE('',*,*,#293,.F.);
#532=ORIENTED_EDGE('',*,*,#361,.F.);
#533=EDGE_LOOP('',(#529,#530,#531,#532));
#534=FACE_BOUND('',#533,.T.);
#535=ADVANCED_FACE('',(#534),#528,.F.);
#536=CARTESIAN_POINT('',(0.,0.,0.));
#537=DIRECTION('',(1.,0.,-0.));
#538=DIRECTION('',(-0.,0.,-1.));
#539=AXIS2_PLACEMENT_3D('',#536,#537,#538);
#540=CONICAL_SURFACE('',#539,4.4,60.);
#541=ORIENTED_EDGE('',*,*,#378,.F.);
#542=ORIENTED_EDGE('',*,*,#425,.T.);
#543=ORIENTED_EDGE('',*,*,#449,.T.);
#544=ORIENTED_EDGE('',*,*,#113,.T.);
#545=ORIENTED_EDGE('',*,*,#472,.T.);
#546=ORIENTED_EDGE('',*,*,#387,.T.);
#547=ORIENTED_EDGE('',*,*,#352,.T.);
#548=EDGE_LOOP('',(#541,#542,#543,#544,#545,#546,#547));
#549=FACE_BOUND('',#548,.T.);
#550=ADVANCED_FACE('',(#549),#540,.T.);
#551=CLOSED_SHELL('',(#91,#131,#162,#186,#228,#266,#304,#330,#366,#405,#438,#460,#484,#499,#511,#523,#535,#550));
#552=MANIFOLD_SOLID_BREP('HI_Hexagon nut DIN 934 M6 01300.060.001(High)',#551);
#553=COLOUR_RGB('',0.689999998,0.689999998,0.689999998);
#554=FILL_AREA_STYLE_COLOUR('',#553);
#555=FILL_AREA_STYLE('',(#554));
#556=SURFACE_STYLE_FILL_AREA(#555);
#557=SURFACE_SIDE_STYLE('',(#556));
#558=SURFACE_STYLE_USAGE(.BOTH.,#557);
#559=PRESENTATION_STYLE_ASSIGNMENT((#558));
#26=STYLED_ITEM('',(#559),#552);
#16=SHAPE_REPRESENTATION('1471 M6 nut DIN934',(#15),#10);
#17=ADVANCED_BREP_SHAPE_REPRESENTATION('1471 M6 nut DIN934',(#552),#10);
#567=SHAPE_REPRESENTATION_RELATIONSHIP('','',#16,#17);
#568=CARTESIAN_POINT('',(0.,0.,0.));
#569=DIRECTION('',(0.,0.,1.));
#570=DIRECTION('',(1.,0.,0.));
#571=AXIS2_PLACEMENT_3D('',#568,#569,#570);
#573=MAPPED_ITEM('',#572,#571);
#572=REPRESENTATION_MAP(#571,#16);
#574=APPLICATION_CONTEXT('Managed model based 3d engineering');
#575=APPLICATION_PROTOCOL_DEFINITION('international standard','ap242_managed_model_based_3d_engineering',2013,#574);
#576=PRODUCT_CONTEXT('',#574,'mechanical');
#577=PRODUCT_DEFINITION_CONTEXT('part definition',#574,'design');
#24=PRODUCT('1471 M6 nut DIN934','1471 M6 nut DIN934','',(#576));
#578=PRODUCT_RELATED_PRODUCT_CATEGORY('part','',(#24));
#579=PRODUCT_DEFINITION_FORMATION_WITH_SPECIFIED_SOURCE('','',#24,.NOT_KNOWN.);
#25=PRODUCT_DEFINITION('design','',#579,#577);
#23=PRODUCT_DEFINITION_SHAPE('','',#25);
#580=SHAPE_DEFINITION_REPRESENTATION(#23,#16);
#11=DRAUGHTING_MODEL('',(#573),#10);
#1=MECHANICAL_DESIGN_GEOMETRIC_PRESENTATION_REPRESENTATION('',(#26),#10);
ENDSEC;
END-ISO-10303-21;
