999
dxflib 2.2.0.0
  0
SECTION
  2
HEADER
  9
$ACADVER
  1
AC1015
  9
$HANDSEED
  5
FFFF
  9
$OBSCOLOR
 70
257
  9
$DIMLIM
 70
0
  9
$LENSLENGTH
 40
50.0
  9
$LONGITUDE
 40
-122.39400000000001
  9
$DIMLUNIT
 70
2
  9
$DIMTIX
 70
0
  9
$LOFTANG1
 40
1.570796326794897
  9
$AUNITS
 70
0
  9
$LOFTANG2
 40
1.570796326794897
  9
$SHOWHIST
280
1
  9
$QTEXTMODE
 70
0
  9
$USERR1
 40
0.0
  9
$DIMALTU
 70
2
  9
$UCSORGBOTTOM
 10
0.0
 20
0.0
 30
0.0
  9
$USERR2
 40
0.0
  9
$USERR3
 40
0.0
  9
$USERR4
 40
0.0
  9
$LIMMAX
 10
420.0
 20
297.0
  9
$USERR5
 40
0.0
  9
$PELEVATION
 40
0.0
  9
$DIMALTZ
 70
0
  9
$DIMADEC
 70
0
  9
$JOINSTYLE
280
0
  9
$DIMATFIT
 70
3
  9
$TILEMODE
 70
1
  9
$PEXTMIN
 10
100000000000000000000.0
 20
100000000000000000000.0
 30
100000000000000000000.0
  9
$TDUSRTIMER
 40
0.0000000116
  9
$DWGCODEPAGE
  3
ANSI_1252
  9
$SORTENTS
280
127
  9
$UCSORTHOVIEW
 70
0
  9
$DIMSOXD
 70
0
  9
$DIMTZIN
 70
8
  9
$SPLINETYPE
 70
6
  9
$DIMLFAC
 40
1.0
  9
$CUSTOMPROPERTYTAG
  1
COMPANY
  9
$DIMSE1
 70
0
  9
$FILLETRAD
 40
10.0
  9
$DIMSE2
 70
0
  9
$PSTYLEMODE
290
1
  9
$TEXTSTYLE
  7
Standard
  9
$DIMTSZ
 40
0.0
  9
$PUCSXDIR
 10
1.0
 20
0.0
 30
0.0
  9
$DIMTFILL
 70
0
  9
$XCLIPFRAME
280
2
  9
$DIMTXSTY
  7
Standard
  9
$PLIMMAX
 10
420.0
 20
297.0
  9
$LOFTNORMALS
280
1
  9
$DIMTFILLCLR
 70
0
  9
$DIMTM
 40
0.0
  9
$UCSORG
 10
0.0
 20
0.0
 30
0.0
  9
$DIMJOGANG
 40
0.7853981633974483
  9
$DIMTP
 40
0.0
  9
$PSLTSCALE
 70
1
  9
$ANGBASE
 50
0.0
  9
$PUCSYDIR
 10
0.0
 20
1.0
 30
0.0
  9
$EXTNAMES
290
1
  9
$LIGHTGLYPHDISPLAY
280
1
  9
$DIMASZ
 40
2.5
  9
$PUCSORTHOVIEW
 70
0
  9
$INSBASE
 10
0.0
 20
0.0
 30
0.0
  9
$UNITMODE
 70
0
  9
$MEASUREMENT
 70
1
  9
$INDEXCTL
280
0
  9
$REALWORLDSCALE
290
1
  9
$EXTMAX
 10
-100000000000000000000.0
 20
-100000000000000000000.0
 30
-100000000000000000000.0
  9
$ELEVATION
 40
0.0
  9
$TDCREATE
 40
2457128.4461182412
  9
$STEPSPERSEC
 40
2.0
  9
$DIMDEC
 70
2
  9
$LATITUDE
 40
37.795000000000002
  9
$CELTYPE
  6
ByLayer
  9
$MENU
  1
.
  9
$ANGDIR
 70
0
  9
$DIMALTTD
 70
3
  9
$TREEDEPTH
 70
3020
  9
$LTSCALE
 40
1.0
  9
$PROXYGRAPHICS
 70
1
  9
$DIMTMOVE
 70
0
  9
$DIMAZIN
 70
0
  9
$TDUPDATE
 40
2457128.446118379
  9
$DIMTOLJ
 70
0
  9
$DIMCEN
 40
2.5
  9
$DIMTVP
 40
0.0
  9
$TRACEWID
 40
1.0
  9
$CMLSTYLE
  2
Standard
  9
$DISPSILH
 70
0
  9
$DIMSTYLE
  2
ISO-25
  9
$STEPSIZE
 40
6.0
  9
$SKETCHINC
 40
1.0
  9
$FILLMODE
 70
1
  9
$PLINEGEN
 70
0
  9
$DIMLWD
 70
-2
  9
$THICKNESS
 40
0.0
  9
$DIMLWE
 70
-2
  9
$CELTSCALE
 40
1.0
  9
$PUCSORG
 10
0.0
 20
0.0
 30
0.0
  9
$DIMALTTZ
 70
0
  9
$INSUNITS
 70
4
  9
$UCSORGBACK
 10
0.0
 20
0.0
 30
0.0
  9
$PLINEWID
 40
0.0
  9
$PEXTMAX
 10
-100000000000000000000.0
 20
-100000000000000000000.0
 30
-100000000000000000000.0
  9
$DIMJUST
 70
0
  9
$CSHADOW
280
0
  9
$DIMASSOC
280
2
  9
$DIMTXTDIRECTION
 70
0
  9
$UCSYDIR
 10
0.0
 20
1.0
 30
0.0
  9
$PUCSORGBACK
 10
0.0
 20
0.0
 30
0.0
  9
$PDSIZE
 40
0.0
  9
$PUCSORGBOTTOM
 10
0.0
 20
0.0
 30
0.0
  9
$REQUIREDVERSIONS
160
0
  9
$DIMUPT
 70
0
  9
$TILEMODELIGHTSYNCH
280
1
  9
$DIMTAD
 70
1
  9
$SHADOWPLANELOCATION
 40
0.0
  9
$UCSXDIR
 10
1.0
 20
0.0
 30
0.0
  9
$MAXACTVP
 70
64
  9
$DIMSAH
 70
0
  9
$HALOGAP
280
0
  9
$TDUCREATE
 40
2457128.3627849072
  9
$DIMFRAC
 70
0
  9
$USERI1
 70
0
  9
$USERI2
 70
0
  9
$UCSORGRIGHT
 10
0.0
 20
0.0
 30
0.0
  9
$USERI3
 70
0
  9
$CELWEIGHT
370
-1
  9
$LWDISPLAY
290
0
  9
$SKPOLY
 70
0
  9
$USERI4
 70
0
  9
$USERI5
 70
0
  9
$LOFTPARAM
 70
7
  9
$LIMMIN
 10
0.0
 20
0.0
  9
$ACADMAINTVER
 70
8
  9
$UCSORGTOP
 10
0.0
 20
0.0
 30
0.0
  9
$PSOLHEIGHT
 40
80.0
  9
$MIRRTEXT
 70
1
  9
$TDUUPDATE
 40
2457128.362785046
  9
$TEXTSIZE
 40
2.5
  9
$CMATERIAL
347
44
  9
$DIMGAP
 40
0.625
  9
$LUPREC
 70
4
  9
$INTERFERECOLOR
 62
256
  9
$CECOLOR
 62
256
  9
$TIMEZONE
 70
-8000
  9
$DIMSD1
 70
0
  9
$3DDWFPREC
 40
2.0
  9
$DIMSD2
 70
0
  9
$WORLDVIEW
 70
1
  9
$PUCSORGRIGHT
 10
0.0
 20
0.0
 30
0.0
  9
$PLIMCHECK
 70
0
  9
$DIMTFAC
 40
1.0
  9
$CMLJUST
 70
0
  9
$DWFFRAME
280
2
  9
$USRTIMER
 70
1
  9
$SURFU
 70
6
  9
$SURFV
 70
6
  9
$DIMASO
 70
1
  9
$PSOLWIDTH
 40
5.0
  9
$DIMDLE
 40
0.0
  9
$EXTMIN
 10
100000000000000000000.0
 20
100000000000000000000.0
 30
100000000000000000000.0
  9
$UCSORGLEFT
 10
0.0
 20
0.0
 30
0.0
  9
$OLESTARTUP
290
0
  9
$PUCSORGFRONT
 10
0.0
 20
0.0
 30
0.0
  9
$DIMDLI
 40
3.75
  9
$LUNITS
 70
2
  9
$DIMCLRD
 70
0
  9
$SHADEDIF
 70
70
  9
$DIMCLRE
 70
0
  9
$SPLINESEGS
 70
8
  9
$PUCSORGLEFT
 10
0.0
 20
0.0
 30
0.0
  9
$COMMENTS
  1
File was created by Cadenas
  9
$INTERSECTIONDISPLAY
280
0
  9
$DIMALTRND
 40
0.0
  9
$DIMRND
 40
0.0
  9
$DIMALT
 70
0
  9
$FINGERPRINTGUID
  2
{13E600DE-58B2-4A0D-B8A0-2F261D1C59DB}
  9
$DIMCLRT
 70
0
  9
$DIMFXLON
 70
0
  9
$PUCSORGTOP
 10
0.0
 20
0.0
 30
0.0
  9
$OBSLTYPE
280
0
  9
$DIMTOH
 70
0
  9
$UCSORGFRONT
 10
0.0
 20
0.0
 30
0.0
  9
$VISRETAIN
 70
1
  9
$SHADEDGE
 70
3
  9
$CAMERADISPLAY
290
0
  9
$DIMTOL
 70
0
  9
$SURFTYPE
 70
6
  9
$VERSIONGUID
  2
{FAEB1C32-E019-11D5-929B-00C0DF256EC4}
  9
$CHAMFERA
 40
0.0
  9
$SURFTAB1
 70
6
  9
$CHAMFERB
 40
0.0
  9
$SURFTAB2
 70
6
  9
$CHAMFERC
 40
0.0
  9
$AUPREC
 70
0
  9
$NORTHDIRECTION
 40
0.0
  9
$CHAMFERD
 40
0.0
  9
$DIMTDEC
 70
2
  9
$PDMODE
 70
0
  9
$SPLFRAME
 70
0
  9
$PLIMMIN
 10
0.0
 20
0.0
  9
$SOLIDHIST
280
1
  9
$XEDIT
290
1
  9
$CAMERAHEIGHT
 40
0.0
  9
$DIMDSEP
 70
44
  9
$DIMARCSYM
 70
0
  9
$LIMCHECK
 70
0
  9
$PINSBASE
 10
0.0
 20
0.0
 30
0.0
  9
$ORTHOMODE
 70
0
  9
$PSVPSCALE
 40
0.0
  9
$CLAYER
  8
0
  9
$DIMSHO
 70
1
  9
$CUSTOMPROPERTY
  1
maytec
  9
$DIMTOFL
 70
1
  9
$LOFTMAG1
 40
0.0
  9
$DIMTXT
 40
2.5
  9
$DIMEXE
 40
1.25
  9
$TDINDWG
 40
0.0000000116
  9
$LOFTMAG2
 40
0.0
  9
$REGENMODE
 70
1
  9
$ATTMODE
 70
1
  9
$CMLSCALE
 40
20.0
  9
$DIMTIH
 70
0
  9
$DIMZIN
 70
8
  9
$CEPSNTYPE
380
0
  9
$DIMFXL
 40
1.0
  9
$HIDETEXT
280
1
  9
$DIMSCALE
 40
1.0
  9
$INTERSECTIONCOLOR
 70
257
  9
$DIMALTD
 70
3
  9
$DIMAUNIT
 70
0
  9
$DIMALTF
 40
0.03937007874016
  9
$DIMEXO
 40
0.625
  9
$DGNFRAME
280
2
  9
$ENDCAPS
280
0
  9
$CLAYER
  8
0
  0
ENDSEC
  0
SECTION
  2
TABLES
  0
TABLE
  2
VPORT
  5
8
100
AcDbSymbolTable
 70
1
  0
VPORT
  5
30
100
AcDbSymbolTableRecord
100
AcDbViewportTableRecord
  2
*Active
 70
0
 10
0.0
 20
0.0
 11
1.0
 21
1.0
 12
286.30555555555549
 22
148.5
 13
0.0
 23
0.0
 14
10.0
 24
10.0
 15
10.0
 25
10.0
 16
0.0
 26
0.0
 36
1.0
 17
0.0
 27
0.0
 37
0.0
 40
297.0
 41
1.92798353909465
 42
50.0
 43
0.0
 44
0.0
 50
0.0
 51
0.0
 71
0
 72
100
 73
1
 74
3
 75
1
 76
1
 77
0
 78
0
281
0
 65
1
110
0.0
120
0.0
130
0.0
111
1.0
121
0.0
131
0.0
112
0.0
122
1.0
132
0.0
 79
0
146
0.0
  0
ENDTAB
  0
TABLE
  2
LTYPE
  5
5
100
AcDbSymbolTable
 70
21
  0
LTYPE
  5
14
100
AcDbSymbolTableRecord
100
AcDbLinetypeTableRecord
  2
ByBlock
 70
0
  3

 72
65
 73
0
 40
0.0
  0
LTYPE
  5
15
100
AcDbSymbolTableRecord
100
AcDbLinetypeTableRecord
  2
ByLayer
 70
0
  3

 72
65
 73
0
 40
0.0
  0
LTYPE
  5
16
100
AcDbSymbolTableRecord
100
AcDbLinetypeTableRecord
  2
CONTINUOUS
 70
0
  3
Solid line
 72
65
 73
0
 40
0.0
  0
LTYPE
  5
31
100
AcDbSymbolTableRecord
100
AcDbLinetypeTableRecord
  2
DOT
 70
0
  3
Dot . . . . . . . . . . . . . . . . . . . . . .
 72
65
 73
2
 40
6.3499999999999996
 49
0.0
 74
0
 49
-6.3499999999999996
 74
0
  0
LTYPE
  5
32
100
AcDbSymbolTableRecord
100
AcDbLinetypeTableRecord
  2
DOT2
 70
0
  3
Dot (.5x) .....................................
 72
65
 73
2
 40
3.1749999999999998
 49
0.0
 74
0
 49
-3.1749999999999998
 74
0
  0
LTYPE
  5
33
100
AcDbSymbolTableRecord
100
AcDbLinetypeTableRecord
  2
DOTX2
 70
0
  3
Dot (2x) .  .  .  .  .  .  .  .  .  .  .  .  .
 72
65
 73
2
 40
12.699999999999999
 49
0.0
 74
0
 49
-12.699999999999999
 74
0
  0
LTYPE
  5
34
100
AcDbSymbolTableRecord
100
AcDbLinetypeTableRecord
  2
DASHED
 70
0
  3
Dashed __ __ __ __ __ __ __ __ __ __ __ __ __ _
 72
65
 73
2
 40
19.050000000000001
 49
12.699999999999999
 74
0
 49
-6.3499999999999996
 74
0
  0
LTYPE
  5
35
100
AcDbSymbolTableRecord
100
AcDbLinetypeTableRecord
  2
DASHED2
 70
0
  3
Dashed (.5x) _ _ _ _ _ _ _ _ _ _ _ _ _ _ _ _ _
 72
65
 73
2
 40
9.5250000000000004
 49
6.3499999999999996
 74
0
 49
-3.1749999999999998
 74
0
  0
LTYPE
  5
36
100
AcDbSymbolTableRecord
100
AcDbLinetypeTableRecord
  2
DASHEDX2
 70
0
  3
Dashed (2x) ____  ____  ____  ____  ____  ___
 72
65
 73
2
 40
38.100000000000001
 49
25.399999999999999
 74
0
 49
-12.699999999999999
 74
0
  0
LTYPE
  5
37
100
AcDbSymbolTableRecord
100
AcDbLinetypeTableRecord
  2
DASHDOT
 70
0
  3
Dash dot __ . __ . __ . __ . __ . __ . __ . __
 72
65
 73
4
 40
25.399999999999999
 49
12.699999999999999
 74
0
 49
-6.3499999999999996
 74
0
 49
0.0
 74
0
 49
-6.3499999999999996
 74
0
  0
LTYPE
  5
38
100
AcDbSymbolTableRecord
100
AcDbLinetypeTableRecord
  2
DASHDOT2
 70
0
  3
Dash dot (.5x) _._._._._._._._._._._._._._._.
 72
65
 73
4
 40
12.699999999999999
 49
6.3499999999999996
 74
0
 49
-3.1749999999999998
 74
0
 49
0.0
 74
0
 49
-3.1749999999999998
 74
0
  0
LTYPE
  5
39
100
AcDbSymbolTableRecord
100
AcDbLinetypeTableRecord
  2
DASHDOTX2
 70
0
  3
Dash dot (2x) ____  .  ____  .  ____  .  ___
 72
65
 73
4
 40
50.799999999999997
 49
25.399999999999999
 74
0
 49
-12.699999999999999
 74
0
 49
0.0
 74
0
 49
-12.699999999999999
 74
0
  0
LTYPE
  5
3A
100
AcDbSymbolTableRecord
100
AcDbLinetypeTableRecord
  2
DIVIDE
 70
0
  3
Divide ____ . . ____ . . ____ . . ____ . . ____
 72
65
 73
6
 40
31.75
 49
12.699999999999999
 74
0
 49
-6.3499999999999996
 74
0
 49
0.0
 74
0
 49
-6.3499999999999996
 74
0
 49
0.0
 74
0
 49
-6.3499999999999996
 74
0
  0
LTYPE
  5
3B
100
AcDbSymbolTableRecord
100
AcDbLinetypeTableRecord
  2
DIVIDE2
 70
0
  3
Divide (.5x) __..__..__..__..__..__..__..__.._
 72
65
 73
6
 40
15.875
 49
6.3499999999999996
 74
0
 49
-3.1749999999999998
 74
0
 49
0.0
 74
0
 49
-3.1749999999999998
 74
0
 49
0.0
 74
0
 49
-3.1749999999999998
 74
0
  0
LTYPE
  5
3C
100
AcDbSymbolTableRecord
100
AcDbLinetypeTableRecord
  2
DIVIDEX2
 70
0
  3
Divide (2x) ________  .  .  ________  .  .  _
 72
65
 73
6
 40
63.5
 49
25.399999999999999
 74
0
 49
-12.699999999999999
 74
0
 49
0.0
 74
0
 49
-12.699999999999999
 74
0
 49
0.0
 74
0
 49
-12.699999999999999
 74
0
  0
LTYPE
  5
3D
100
AcDbSymbolTableRecord
100
AcDbLinetypeTableRecord
  2
CENTER
 70
0
  3
Center ____ _ ____ _ ____ _ ____ _ ____ _ ____
 72
65
 73
4
 40
50.799999999999997
 49
31.75
 74
0
 49
-6.3499999999999996
 74
0
 49
6.3499999999999996
 74
0
 49
-6.3499999999999996
 74
0
  0
LTYPE
  5
3E
100
AcDbSymbolTableRecord
100
AcDbLinetypeTableRecord
  2
CENTER2
 70
0
  3
Center (.5x) ___ _ ___ _ ___ _ ___ _ ___ _ ___
 72
65
 73
4
 40
28.574999999999999
 49
19.050000000000001
 74
0
 49
-3.1749999999999998
 74
0
 49
3.1749999999999998
 74
0
 49
-3.1749999999999998
 74
0
  0
LTYPE
  5
3F
100
AcDbSymbolTableRecord
100
AcDbLinetypeTableRecord
  2
CENTERX2
 70
0
  3
Center (2x) ________  __  ________  __  _____
 72
65
 73
4
 40
101.59999999999999
 49
63.5
 74
0
 49
-12.699999999999999
 74
0
 49
12.699999999999999
 74
0
 49
-12.699999999999999
 74
0
  0
LTYPE
  5
40
100
AcDbSymbolTableRecord
100
AcDbLinetypeTableRecord
  2
BORDER
 70
0
  3
Border __ __ . __ __ . __ __ . __ __ . __ __ .
 72
65
 73
6
 40
44.450000000000003
 49
12.699999999999999
 74
0
 49
-6.3499999999999996
 74
0
 49
12.699999999999999
 74
0
 49
-6.3499999999999996
 74
0
 49
0.0
 74
0
 49
-6.3499999999999996
 74
0
  0
LTYPE
  5
41
100
AcDbSymbolTableRecord
100
AcDbLinetypeTableRecord
  2
BORDER2
 70
0
  3
Border (.5x) __.__.__.__.__.__.__.__.__.__.__.
 72
65
 73
6
 40
22.225000000000001
 49
6.3499999999999996
 74
0
 49
-3.1749999999999998
 74
0
 49
6.3499999999999996
 74
0
 49
-3.1749999999999998
 74
0
 49
0.0
 74
0
 49
-3.1749999999999998
 74
0
  0
LTYPE
  5
42
100
AcDbSymbolTableRecord
100
AcDbLinetypeTableRecord
  2
BORDERX2
 70
0
  3
Border (2x) ____  ____  .  ____  ____  .  ___
 72
65
 73
6
 40
88.900000000000006
 49
25.399999999999999
 74
0
 49
-12.699999999999999
 74
0
 49
25.399999999999999
 74
0
 49
-12.699999999999999
 74
0
 49
0.0
 74
0
 49
-12.699999999999999
 74
0
  0
ENDTAB
  0
TABLE
  2
LAYER
  5
2
100
AcDbSymbolTable
 70
10
  0
LAYER
  5
10
100
AcDbSymbolTableRecord
100
AcDbLayerTableRecord
  2
0
 70
0
 62
7
420
16777215
  6
CONTINUOUS
370
-3
390
F
  0
LAYER
  5
43
100
AcDbSymbolTableRecord
100
AcDbLayerTableRecord
  2
AM_0
 70
0
 62
7
420
16777215
  6
CONTINUOUS
370
50
390
F
  0
LAYER
  5
44
100
AcDbSymbolTableRecord
100
AcDbLayerTableRecord
  2
AM_2
 70
0
 62
5
420
255
  6
CONTINUOUS
370
50
390
F
  0
LAYER
  5
45
100
AcDbSymbolTableRecord
100
AcDbLayerTableRecord
  2
AM_3
 70
0
 62
6
420
16711935
  6
DASHED
370
25
390
F
  0
LAYER
  5
46
100
AcDbSymbolTableRecord
100
AcDbLayerTableRecord
  2
AM_7
 70
0
 62
4
420
65535
  6
CENTER
370
25
390
F
  0
LAYER
  5
47
100
AcDbSymbolTableRecord
100
AcDbLayerTableRecord
  2
AM_10
 70
0
 62
7
420
16777215
  6
CENTER
370
50
390
F
  0
LAYER
  5
48
100
AcDbSymbolTableRecord
100
AcDbLayerTableRecord
  2
AM_5
 70
0
 62
3
420
65280
  6
CONTINUOUS
370
25
390
F
  0
LAYER
  5
49
100
AcDbSymbolTableRecord
100
AcDbLayerTableRecord
  2
AM_6
 70
1
 62
-2
420
16776960
  6
CONTINUOUS
370
35
390
F
  0
LAYER
  5
4A
100
AcDbSymbolTableRecord
100
AcDbLayerTableRecord
  2
AM_11
 70
0
 62
3
420
65280
  6
CONTINUOUS
370
25
390
F
  0
LAYER
  5
4B
100
AcDbSymbolTableRecord
100
AcDbLayerTableRecord
  2
ConnectionPoints
 70
1
 62
-1
420
16711680
  6
CONTINUOUS
370
5
390
F
  0
ENDTAB
  0
TABLE
  2
STYLE
  5
3
100
AcDbSymbolTable
 70
1
  0
STYLE
  5
11
100
AcDbSymbolTableRecord
100
AcDbTextStyleTableRecord
  2
Standard
 70
0
 40
0.0
 41
0.75
 50
0.0
 71
0
 42
2.5
  3
txt
  4

  0
ENDTAB
  0
TABLE
  2
VIEW
  5
6
100
AcDbSymbolTable
 70
0
  0
ENDTAB
  0
TABLE
  2
UCS
  5
7
100
AcDbSymbolTable
 70
0
  0
ENDTAB
  0
TABLE
  2
APPID
  5
9
100
AcDbSymbolTable
 70
1
  0
APPID
  5
12
100
AcDbSymbolTableRecord
100
AcDbRegAppTableRecord
  2
ACAD
 70
0
  0
ENDTAB
  0
TABLE
  2
DIMSTYLE
  5
A
100
AcDbSymbolTable
 70
1
100
AcDbDimStyleTable
 71
0
  0
DIMSTYLE
105
27
100
AcDbSymbolTableRecord
100
AcDbDimStyleTableRecord
  2
Standard
 41
2.5
 42
0.625
 43
3.75
 44
1.25
 70
0
 73
0
 74
0
 77
1
 78
8
140
2.5
141
2.5
143
0.03937007874016
147
0.625
171
3
172
1
271
2
272
2
274
3
278
44
283
0
284
8
340
11
  0
ENDTAB
  0
TABLE
  2
BLOCK_RECORD
  5
1
100
AcDbSymbolTable
 70
1
  0
BLOCK_RECORD
  5
1F
100
AcDbSymbolTableRecord
100
AcDbBlockTableRecord
  2
*Model_Space
340
22
  0
BLOCK_RECORD
  5
1B
100
AcDbSymbolTableRecord
100
AcDbBlockTableRecord
  2
*Paper_Space
340
1E
  0
BLOCK_RECORD
  5
23
100
AcDbSymbolTableRecord
100
AcDbBlockTableRecord
  2
*Paper_Space0
340
26
  0
ENDTAB
  0
ENDSEC
  0
SECTION
  2
BLOCKS
  0
BLOCK
  5
20
100
AcDbEntity
  8
0
100
AcDbBlockBegin
  2
*Model_Space
 70
0
 10
0.0
 20
0.0
 30
0.0
  3
*Model_Space
  1

  0
ENDBLK
  5
21
100
AcDbEntity
  8
0
100
AcDbBlockEnd
  0
BLOCK
  5
1C
100
AcDbEntity
 67
1
  8
0
100
AcDbBlockBegin
  2
*Paper_Space
 70
0
 10
0.0
 20
0.0
 30
0.0
  3
*Paper_Space
  1

  0
ENDBLK
  5
1D
100
AcDbEntity
 67
1
  8
0
100
AcDbBlockEnd
  0
BLOCK
  5
24
100
AcDbEntity
  8
0
100
AcDbBlockBegin
  2
*Paper_Space0
 70
0
 10
0.0
 20
0.0
 30
0.0
  3
*Paper_Space0
  1

  0
ENDBLK
  5
25
100
AcDbEntity
  8
0
100
AcDbBlockEnd
  0
ENDSEC
  0
SECTION
  2
ENTITIES
  0
LINE
  5
4C
100
AcDbEntity
100
AcDbLine
  8
AM_0
 62
256
370
-1
  6
ByLayer
 10
-16.921226761146571
 20
-23.885087443943469
 30
0.0
 11
-19.921226761146571
 21
-23.885087443943469
 31
0.0
  0
LINE
  5
4D
100
AcDbEntity
100
AcDbLine
  8
AM_0
 62
256
370
-1
  6
ByLayer
 10
-19.921226761146571
 20
-23.885087443943469
 30
0.0
 11
-19.921226761146571
 21
-36.785087443943468
 31
0.0
  0
ARC
  5
4E
100
AcDbEntity
  8
AM_0
 62
256
370
-1
  6
ByLayer
100
AcDbCircle
 10
-16.921226761146581
 20
-36.785087443943489
 30
0.0
 40
2.9999999999999929
100
AcDbArc
 50
180.0
 51
270.0
  0
LINE
  5
4F
100
AcDbEntity
100
AcDbLine
  8
AM_0
 62
256
370
-1
  6
ByLayer
 10
-16.921226761146581
 20
-39.785087443943468
 30
0.0
 11
-4.021226761146572
 21
-39.785087443943468
 31
0.0
  0
LINE
  5
50
100
AcDbEntity
100
AcDbLine
  8
AM_0
 62
256
370
-1
  6
ByLayer
 10
-4.021226761146572
 20
-39.785087443943468
 30
0.0
 11
-4.0212267611465702
 21
-36.785087443943468
 31
0.0
  0
LINE
  5
51
100
AcDbEntity
100
AcDbLine
  8
AM_0
 62
256
370
-1
  6
ByLayer
 10
-4.0212267611465702
 20
-36.785087443943468
 30
0.0
 11
-10.421226761146571
 21
-36.785087443943468
 31
0.0
  0
LINE
  5
52
100
AcDbEntity
100
AcDbLine
  8
AM_0
 62
256
370
-1
  6
ByLayer
 10
-10.421226761146571
 20
-36.785087443943468
 30
0.0
 11
-10.421226761146571
 21
-32.730829043072383
 31
0.0
  0
ARC
  5
53
100
AcDbEntity
  8
AM_0
 62
256
370
-1
  6
ByLayer
100
AcDbCircle
 10
-8.8212267611465673
 20
-32.730829143740422
 30
0.0
 40
1.6000000000000041
100
AcDbArc
 50
134.99999797929931
 51
179.99999637774519
  0
LINE
  5
54
100
AcDbEntity
100
AcDbLine
  8
AM_0
 62
256
370
-1
  6
ByLayer
 10
-9.9525975711439933
 20
-31.599458253940892
 30
0.0
 11
-7.8097996659885851
 21
-29.456660348785491
 31
0.0
  0
ARC
  5
55
100
AcDbEntity
  8
AM_0
 62
256
370
-1
  6
ByLayer
100
AcDbCircle
 10
-4.9813725116542136
 20
-32.285087443943397
 30
0.0
 40
3.9999999999999258
100
AcDbArc
 50
90.000000885708161
 51
135.0000005993723
  0
LINE
  5
56
100
AcDbEntity
100
AcDbLine
  8
AM_0
 62
256
370
-1
  6
ByLayer
 10
-4.9813725734883096
 20
-28.285087443943471
 30
0.0
 11
5.1389190511951588
 21
-28.285087443943471
 31
0.0
  0
ARC
  5
57
100
AcDbEntity
  8
AM_0
 62
256
370
-1
  6
ByLayer
100
AcDbCircle
 10
5.1389189893610521
 20
-32.285087443943453
 30
0.0
 40
3.9999999999999831
100
AcDbArc
 50
44.999999400628127
 51
89.999999114291668
  0
LINE
  5
58
100
AcDbEntity
100
AcDbLine
  8
AM_0
 62
256
370
-1
  6
ByLayer
 10
7.9673461436954414
 20
-29.456660348785491
 30
0.0
 11
10.110144048850829
 21
-31.59945825394087
 31
0.0
  0
ARC
  5
59
100
AcDbEntity
  8
AM_0
 62
256
370
-1
  6
ByLayer
100
AcDbCircle
 10
8.9787732388533676
 20
-32.730829143740458
 30
0.0
 40
1.600000000000068
100
AcDbArc
 50
0.0000036222548092
 51
45.000002020701302
  0
LINE
  5
5A
100
AcDbEntity
100
AcDbLine
  8
AM_0
 62
256
370
-1
  6
ByLayer
 10
10.578773238853429
 20
-32.730829042588013
 30
0.0
 11
10.578773238853429
 21
-36.785087443943468
 31
0.0
  0
LINE
  5
5B
100
AcDbEntity
100
AcDbLine
  8
AM_0
 62
256
370
-1
  6
ByLayer
 10
10.578773238853429
 20
-36.785087443943468
 30
0.0
 11
4.1787732388534291
 21
-36.785087443943468
 31
0.0
  0
LINE
  5
5C
100
AcDbEntity
100
AcDbLine
  8
AM_0
 62
256
370
-1
  6
ByLayer
 10
4.1787732388534291
 20
-36.785087443943468
 30
0.0
 11
4.1787732388534291
 21
-39.785087443943468
 31
0.0
  0
LINE
  5
5D
100
AcDbEntity
100
AcDbLine
  8
AM_0
 62
256
370
-1
  6
ByLayer
 10
4.1787732388534291
 20
-39.785087443943468
 30
0.0
 11
17.078773238853429
 21
-39.785087443943468
 31
0.0
  0
ARC
  5
5E
100
AcDbEntity
  8
AM_0
 62
256
370
-1
  6
ByLayer
100
AcDbCircle
 10
17.078773238853429
 20
-36.785087443943468
 30
0.0
 40
3.0
100
AcDbArc
 50
270.0
 51
0.0
  0
LINE
  5
5F
100
AcDbEntity
100
AcDbLine
  8
AM_0
 62
256
370
-1
  6
ByLayer
 10
20.078773238853429
 20
-36.785087443943468
 30
0.0
 11
20.078773238853429
 21
-23.885087443943469
 31
0.0
  0
LINE
  5
60
100
AcDbEntity
100
AcDbLine
  8
AM_0
 62
256
370
-1
  6
ByLayer
 10
20.078773238853429
 20
-23.885087443943469
 30
0.0
 11
17.078773238853429
 21
-23.885087443943469
 31
0.0
  0
LINE
  5
61
100
AcDbEntity
100
AcDbLine
  8
AM_0
 62
256
370
-1
  6
ByLayer
 10
17.078773238853429
 20
-23.885087443943469
 30
0.0
 11
17.078773238853429
 21
-30.285087443943471
 31
0.0
  0
LINE
  5
62
100
AcDbEntity
100
AcDbLine
  8
AM_0
 62
256
370
-1
  6
ByLayer
 10
17.078773238853429
 20
-30.285087443943471
 30
0.0
 11
13.024514837982331
 21
-30.285087443943471
 31
0.0
  0
ARC
  5
63
100
AcDbEntity
  8
AM_0
 62
256
370
-1
  6
ByLayer
100
AcDbCircle
 10
13.024514938650389
 20
-28.68508744394347
 30
0.0
 40
1.6000000000000081
100
AcDbArc
 50
224.999997979298
 51
269.99999639509059
  0
LINE
  5
64
100
AcDbEntity
100
AcDbLine
  8
AM_0
 62
256
370
-1
  6
ByLayer
 10
11.89314404885083
 20
-29.816458253940869
 30
0.0
 11
9.7503461436954293
 21
-27.673660348785472
 31
0.0
  0
ARC
  5
65
100
AcDbEntity
  8
AM_0
 62
256
370
-1
  6
ByLayer
100
AcDbCircle
 10
12.578773238853429
 20
-24.845233194451101
 30
0.0
 40
4.0000000000000018
100
AcDbArc
 50
180.0
 51
225.0000005993713
  0
LINE
  5
66
100
AcDbEntity
100
AcDbLine
  8
AM_0
 62
256
370
-1
  6
ByLayer
 10
8.5787732388534312
 20
-24.84523319445109
 30
0.0
 11
8.5787732388534295
 21
-14.724941631601769
 31
0.0
  0
ARC
  5
67
100
AcDbEntity
  8
AM_0
 62
256
370
-1
  6
ByLayer
100
AcDbCircle
 10
12.57877323885341
 20
-14.72494169343585
 30
0.0
 40
3.999999999999984
100
AcDbArc
 50
134.99999940062841
 51
180.0
  0
LINE
  5
68
100
AcDbEntity
100
AcDbLine
  8
AM_0
 62
256
370
-1
  6
ByLayer
 10
9.7503461436954311
 20
-11.896514539101471
 30
0.0
 11
11.89314404885083
 21
-9.7537166339460732
 31
0.0
  0
ARC
  5
69
100
AcDbEntity
  8
AM_0
 62
256
370
-1
  6
ByLayer
100
AcDbCircle
 10
13.024514938650389
 20
-10.88508744394348
 30
0.0
 40
1.6000000000000101
100
AcDbArc
 50
90.000003604909367
 51
135.000002020702
  0
LINE
  5
6A
100
AcDbEntity
100
AcDbLine
  8
AM_0
 62
256
370
-1
  6
ByLayer
 10
13.024514837982331
 20
-9.2850874439434712
 30
0.0
 11
17.078773238853429
 21
-9.2850874439434712
 31
0.0
  0
LINE
  5
6B
100
AcDbEntity
100
AcDbLine
  8
AM_0
 62
256
370
-1
  6
ByLayer
 10
17.078773238853429
 20
-9.2850874439434712
 30
0.0
 11
17.078773238853429
 21
-15.68508744394347
 31
0.0
  0
LINE
  5
6C
100
AcDbEntity
100
AcDbLine
  8
AM_0
 62
256
370
-1
  6
ByLayer
 10
17.078773238853429
 20
-15.68508744394347
 30
0.0
 11
20.078773238853429
 21
-15.68508744394347
 31
0.0
  0
LINE
  5
6D
100
AcDbEntity
100
AcDbLine
  8
AM_0
 62
256
370
-1
  6
ByLayer
 10
20.078773238853429
 20
-15.68508744394347
 30
0.0
 11
20.078773238853429
 21
16.114912556056531
 31
0.0
  0
LINE
  5
6E
100
AcDbEntity
100
AcDbLine
  8
AM_0
 62
256
370
-1
  6
ByLayer
 10
20.078773238853429
 20
16.114912556056531
 30
0.0
 11
17.078773238853429
 21
16.114912556056531
 31
0.0
  0
LINE
  5
6F
100
AcDbEntity
100
AcDbLine
  8
AM_0
 62
256
370
-1
  6
ByLayer
 10
17.078773238853429
 20
16.114912556056531
 30
0.0
 11
17.078773238853429
 21
9.7149125560565306
 31
0.0
  0
LINE
  5
70
100
AcDbEntity
100
AcDbLine
  8
AM_0
 62
256
370
-1
  6
ByLayer
 10
17.078773238853429
 20
9.7149125560565306
 30
0.0
 11
13.024514837982331
 21
9.7149125560565306
 31
0.0
  0
ARC
  5
71
100
AcDbEntity
  8
AM_0
 62
256
370
-1
  6
ByLayer
100
AcDbCircle
 10
13.02451493865037
 20
11.3149125560565
 30
0.0
 40
1.599999999999973
100
AcDbArc
 50
224.9999979792976
 51
269.99999639509122
  0
LINE
  5
72
100
AcDbEntity
100
AcDbLine
  8
AM_0
 62
256
370
-1
  6
ByLayer
 10
11.89314404885083
 20
10.183541746059131
 30
0.0
 11
9.7503461436954293
 21
12.32633965121453
 31
0.0
  0
ARC
  5
73
100
AcDbEntity
  8
AM_0
 62
256
370
-1
  6
ByLayer
100
AcDbCircle
 10
12.57877323885341
 20
15.154766805548901
 30
0.0
 40
3.99999999999998
100
AcDbArc
 50
180.00000120741831
 51
225.00000059937159
  0
LINE
  5
74
100
AcDbEntity
100
AcDbLine
  8
AM_0
 62
256
370
-1
  6
ByLayer
 10
8.5787732388534277
 20
15.1547667212552
 30
0.0
 11
8.5787732388534295
 21
25.275058368398231
 31
0.0
  0
ARC
  5
75
100
AcDbEntity
  8
AM_0
 62
256
370
-1
  6
ByLayer
100
AcDbCircle
 10
12.57877323885341
 20
25.275058306564159
 30
0.0
 40
3.9999999999999751
100
AcDbArc
 50
134.99999940062841
 51
180.0
  0
LINE
  5
76
100
AcDbEntity
100
AcDbLine
  8
AM_0
 62
256
370
-1
  6
ByLayer
 10
9.7503461436954328
 20
28.103485460898529
 30
0.0
 11
11.89314404885083
 21
30.24628336605393
 31
0.0
  0
ARC
  5
77
100
AcDbEntity
  8
AM_0
 62
256
370
-1
  6
ByLayer
100
AcDbCircle
 10
13.024514938650411
 20
29.114912556056488
 30
0.0
 40
1.6000000000000469
100
AcDbArc
 50
90.000003604910077
 51
135.00000202070149
  0
LINE
  5
78
100
AcDbEntity
100
AcDbLine
  8
AM_0
 62
256
370
-1
  6
ByLayer
 10
13.024514837982331
 20
30.714912556056529
 30
0.0
 11
17.078773238853429
 21
30.714912556056529
 31
0.0
  0
LINE
  5
79
100
AcDbEntity
100
AcDbLine
  8
AM_0
 62
256
370
-1
  6
ByLayer
 10
17.078773238853429
 20
30.714912556056529
 30
0.0
 11
17.078773238853429
 21
24.31491255605653
 31
0.0
  0
LINE
  5
7A
100
AcDbEntity
100
AcDbLine
  8
AM_0
 62
256
370
-1
  6
ByLayer
 10
17.078773238853429
 20
24.31491255605653
 30
0.0
 11
20.078773238853429
 21
24.31491255605653
 31
0.0
  0
LINE
  5
7B
100
AcDbEntity
100
AcDbLine
  8
AM_0
 62
256
370
-1
  6
ByLayer
 10
20.078773238853429
 20
24.31491255605653
 30
0.0
 11
20.078773238853429
 21
37.214912556056532
 31
0.0
  0
ARC
  5
7C
100
AcDbEntity
  8
AM_0
 62
256
370
-1
  6
ByLayer
100
AcDbCircle
 10
17.078773238853429
 20
37.214912556056539
 30
0.0
 40
3.000000000000004
100
AcDbArc
 50
0.0
 51
90.0
  0
LINE
  5
7D
100
AcDbEntity
100
AcDbLine
  8
AM_0
 62
256
370
-1
  6
ByLayer
 10
17.078773238853429
 20
40.214912556056539
 30
0.0
 11
4.17877323885343
 21
40.214912556056532
 31
0.0
  0
LINE
  5
7E
100
AcDbEntity
100
AcDbLine
  8
AM_0
 62
256
370
-1
  6
ByLayer
 10
4.17877323885343
 20
40.214912556056532
 30
0.0
 11
4.1787732388534291
 21
37.214912556056532
 31
0.0
  0
LINE
  5
7F
100
AcDbEntity
100
AcDbLine
  8
AM_0
 62
256
370
-1
  6
ByLayer
 10
4.1787732388534291
 20
37.214912556056532
 30
0.0
 11
10.578773238853429
 21
37.214912556056532
 31
0.0
  0
LINE
  5
80
100
AcDbEntity
100
AcDbLine
  8
AM_0
 62
256
370
-1
  6
ByLayer
 10
10.578773238853429
 20
37.214912556056532
 30
0.0
 11
10.578773238853429
 21
33.160654155185433
 31
0.0
  0
ARC
  5
81
100
AcDbEntity
  8
AM_0
 62
256
370
-1
  6
ByLayer
100
AcDbCircle
 10
8.9787732388534565
 20
33.160654255853473
 30
0.0
 40
1.5999999999999741
100
AcDbArc
 50
314.99999797929758
 51
0.0000963777451943
  0
LINE
  5
82
100
AcDbEntity
100
AcDbLine
  8
AM_0
 62
256
370
-1
  6
ByLayer
 10
10.110144048850829
 20
32.029283366053917
 30
0.0
 11
7.9673461436954431
 21
29.886485460898541
 31
0.0
  0
ARC
  5
83
100
AcDbEntity
  8
AM_0
 62
256
370
-1
  6
ByLayer
100
AcDbCircle
 10
5.1389189893610254
 20
32.714912556056603
 30
0.0
 40
4.0000000000000684
100
AcDbArc
 50
270.00000088570869
 51
315.00000059937128
  0
LINE
  5
84
100
AcDbEntity
100
AcDbLine
  8
AM_0
 62
256
370
-1
  6
ByLayer
 10
5.1389190511951579
 20
28.714912556056529
 30
0.0
 11
-4.9813725734883088
 21
28.714912556056529
 31
0.0
  0
ARC
  5
85
100
AcDbEntity
  8
AM_0
 62
256
370
-1
  6
ByLayer
100
AcDbCircle
 10
-4.9813725116542038
 20
32.714912556056483
 30
0.0
 40
3.9999999999999538
100
AcDbArc
 50
224.99999940062779
 51
269.99999911429171
  0
LINE
  5
86
100
AcDbEntity
100
AcDbLine
  8
AM_0
 62
256
370
-1
  6
ByLayer
 10
-7.8097996659885878
 20
29.886485460898552
 30
0.0
 11
-9.9525975711439898
 21
32.029283366053953
 31
0.0
  0
ARC
  5
87
100
AcDbEntity
  8
AM_0
 62
256
370
-1
  6
ByLayer
100
AcDbCircle
 10
-8.8212267611466064
 20
33.160654255853473
 30
0.0
 40
1.599999999999967
100
AcDbArc
 50
180.00000362225481
 51
225.00000202070149
  0
LINE
  5
88
100
AcDbEntity
100
AcDbLine
  8
AM_0
 62
256
370
-1
  6
ByLayer
 10
-10.421226761146571
 20
33.160654151929229
 30
0.0
 11
-10.421226761146571
 21
37.214912556056532
 31
0.0
  0
LINE
  5
89
100
AcDbEntity
100
AcDbLine
  8
AM_0
 62
256
370
-1
  6
ByLayer
 10
-10.421226761146571
 20
37.214912556056532
 30
0.0
 11
-4.0212267611465702
 21
37.214912556056532
 31
0.0
  0
LINE
  5
8A
100
AcDbEntity
100
AcDbLine
  8
AM_0
 62
256
370
-1
  6
ByLayer
 10
-4.0212267611465702
 20
37.214912556056532
 30
0.0
 11
-4.0212267611465702
 21
40.214912556056532
 31
0.0
  0
LINE
  5
8B
100
AcDbEntity
100
AcDbLine
  8
AM_0
 62
256
370
-1
  6
ByLayer
 10
-4.0212267611465702
 20
40.214912556056532
 30
0.0
 11
-16.921226761146571
 21
40.214912556056532
 31
0.0
  0
ARC
  5
8C
100
AcDbEntity
  8
AM_0
 62
256
370
-1
  6
ByLayer
100
AcDbCircle
 10
-16.921226761146581
 20
37.214912556056539
 30
0.0
 40
2.9999999999999929
100
AcDbArc
 50
90.0
 51
179.99999914622629
  0
LINE
  5
8D
100
AcDbEntity
100
AcDbLine
  8
AM_0
 62
256
370
-1
  6
ByLayer
 10
-19.921226761146571
 20
37.21491260076003
 30
0.0
 11
-19.921226761146571
 21
24.31491255605653
 31
0.0
  0
LINE
  5
8E
100
AcDbEntity
100
AcDbLine
  8
AM_0
 62
256
370
-1
  6
ByLayer
 10
-19.921226761146571
 20
24.31491255605653
 30
0.0
 11
-16.921226761146571
 21
24.31491255605653
 31
0.0
  0
LINE
  5
8F
100
AcDbEntity
100
AcDbLine
  8
AM_0
 62
256
370
-1
  6
ByLayer
 10
-16.921226761146571
 20
24.31491255605653
 30
0.0
 11
-16.921226761146571
 21
30.714912556056529
 31
0.0
  0
LINE
  5
90
100
AcDbEntity
100
AcDbLine
  8
AM_0
 62
256
370
-1
  6
ByLayer
 10
-16.921226761146571
 20
30.714912556056529
 30
0.0
 11
-12.86696836027547
 21
30.714912556056529
 31
0.0
  0
ARC
  5
91
100
AcDbEntity
  8
AM_0
 62
256
370
-1
  6
ByLayer
100
AcDbCircle
 10
-12.86696846094355
 20
29.114912556056481
 30
0.0
 40
1.600000000000052
100
AcDbArc
 50
44.999997979298563
 51
89.999996395089866
  0
LINE
  5
92
100
AcDbEntity
100
AcDbLine
  8
AM_0
 62
256
370
-1
  6
ByLayer
 10
-11.73559757114397
 20
30.24628336605393
 30
0.0
 11
-9.5927996659885721
 21
28.103485460898529
 31
0.0
  0
ARC
  5
93
100
AcDbEntity
  8
AM_0
 62
256
370
-1
  6
ByLayer
100
AcDbCircle
 10
-12.421226761146571
 20
25.275058306564151
 30
0.0
 40
4.0000000000000009
100
AcDbArc
 50
0.0000012074182697
 51
45.000000599371447
  0
LINE
  5
94
100
AcDbEntity
100
AcDbLine
  8
AM_0
 62
256
370
-1
  6
ByLayer
 10
-8.4212267611465741
 20
25.275058390857861
 30
0.0
 11
-8.4212267611465723
 21
15.154766743714831
 31
0.0
  0
ARC
  5
95
100
AcDbEntity
  8
AM_0
 62
256
370
-1
  6
ByLayer
100
AcDbCircle
 10
-12.421226761146571
 20
15.15476680554891
 30
0.0
 40
4.0000000000000018
100
AcDbArc
 50
314.99999940062872
 51
0.0000999999999749
  0
LINE
  5
96
100
AcDbEntity
100
AcDbLine
  8
AM_0
 62
256
370
-1
  6
ByLayer
 10
-9.5927996659885704
 20
12.32633965121453
 30
0.0
 11
-11.73559757114397
 21
10.183541746059131
 31
0.0
  0
ARC
  5
97
100
AcDbEntity
  8
AM_0
 62
256
370
-1
  6
ByLayer
100
AcDbCircle
 10
-12.866968460943511
 20
11.3149125560565
 30
0.0
 40
1.5999999999999761
100
AcDbArc
 50
270.00000360490878
 51
315.00000202070231
  0
LINE
  5
98
100
AcDbEntity
100
AcDbLine
  8
AM_0
 62
256
370
-1
  6
ByLayer
 10
-12.86696836027547
 20
9.7149125560565306
 30
0.0
 11
-16.921226761146571
 21
9.7149125560565306
 31
0.0
  0
LINE
  5
99
100
AcDbEntity
100
AcDbLine
  8
AM_0
 62
256
370
-1
  6
ByLayer
 10
-16.921226761146571
 20
9.7149125560565306
 30
0.0
 11
-16.921226761146571
 21
16.114912556056531
 31
0.0
  0
LINE
  5
9A
100
AcDbEntity
100
AcDbLine
  8
AM_0
 62
256
370
-1
  6
ByLayer
 10
-16.921226761146571
 20
16.114912556056531
 30
0.0
 11
-19.921226761146571
 21
16.114912556056531
 31
0.0
  0
LINE
  5
9B
100
AcDbEntity
100
AcDbLine
  8
AM_0
 62
256
370
-1
  6
ByLayer
 10
-19.921226761146571
 20
16.114912556056531
 30
0.0
 11
-19.921226761146571
 21
-15.68508744394348
 31
0.0
  0
LINE
  5
9C
100
AcDbEntity
100
AcDbLine
  8
AM_0
 62
256
370
-1
  6
ByLayer
 10
-19.921226761146571
 20
-15.68508744394348
 30
0.0
 11
-16.921226761146571
 21
-15.68508744394347
 31
0.0
  0
LINE
  5
9D
100
AcDbEntity
100
AcDbLine
  8
AM_0
 62
256
370
-1
  6
ByLayer
 10
-16.921226761146571
 20
-15.68508744394347
 30
0.0
 11
-16.921226761146571
 21
-9.2850874439434712
 31
0.0
  0
LINE
  5
9E
100
AcDbEntity
100
AcDbLine
  8
AM_0
 62
256
370
-1
  6
ByLayer
 10
-16.921226761146571
 20
-9.2850874439434712
 30
0.0
 11
-12.86696836027547
 21
-9.2850874439434712
 31
0.0
  0
ARC
  5
9F
100
AcDbEntity
  8
AM_0
 62
256
370
-1
  6
ByLayer
100
AcDbCircle
 10
-12.86696846094352
 20
-10.885087443943471
 30
0.0
 40
1.5999999999999981
100
AcDbArc
 50
44.999997979297888
 51
89.999996395090818
  0
LINE
  5
A0
100
AcDbEntity
100
AcDbLine
  8
AM_0
 62
256
370
-1
  6
ByLayer
 10
-11.73559757114397
 20
-9.7537166339460715
 30
0.0
 11
-9.5927996659885704
 21
-11.896514539101471
 31
0.0
  0
ARC
  5
A1
100
AcDbEntity
  8
AM_0
 62
256
370
-1
  6
ByLayer
100
AcDbCircle
 10
-12.421226761146579
 20
-14.724941693435859
 30
0.0
 40
4.0000000000000098
100
AcDbArc
 50
0.0000012074182697
 51
45.00000059937139
  0
LINE
  5
A2
100
AcDbEntity
100
AcDbLine
  8
AM_0
 62
256
370
-1
  6
ByLayer
 10
-8.4212267611465705
 20
-14.724941609142149
 30
0.0
 11
-8.4212267611465723
 21
-24.845233256285169
 31
0.0
  0
ARC
  5
A3
100
AcDbEntity
  8
AM_0
 62
256
370
-1
  6
ByLayer
100
AcDbCircle
 10
-12.42122676114654
 20
-24.845233194451101
 30
0.0
 40
3.9999999999999671
100
AcDbArc
 50
314.99999940062833
 51
0.0000999999999749
  0
LINE
  5
A4
100
AcDbEntity
100
AcDbLine
  8
AM_0
 62
256
370
-1
  6
ByLayer
 10
-9.5927996659885739
 20
-27.673660348785472
 30
0.0
 11
-11.73559757114397
 21
-29.816458253940869
 31
0.0
  0
ARC
  5
A5
100
AcDbEntity
  8
AM_0
 62
256
370
-1
  6
ByLayer
100
AcDbCircle
 10
-12.86696846094353
 20
-28.68508744394347
 30
0.0
 40
1.6000000000000081
100
AcDbArc
 50
270.00000360490941
 51
315.00000202070203
  0
LINE
  5
A6
100
AcDbEntity
100
AcDbLine
  8
AM_0
 62
256
370
-1
  6
ByLayer
 10
-12.86696836027547
 20
-30.285087443943471
 30
0.0
 11
-16.921226761146571
 21
-30.285087443943471
 31
0.0
  0
LINE
  5
A7
100
AcDbEntity
100
AcDbLine
  8
AM_0
 62
256
370
-1
  6
ByLayer
 10
13.87877323885343
 20
38.714912556056532
 30
0.0
 11
12.078773238853429
 21
38.714912556056532
 31
0.0
  0
LINE
  5
A8
100
AcDbEntity
100
AcDbLine
  8
AM_0
 62
256
370
-1
  6
ByLayer
 10
13.87877323885343
 20
37.632030851048029
 30
0.0
 11
13.87877323885343
 21
38.714912556056532
 31
0.0
  0
LINE
  5
A9
100
AcDbEntity
100
AcDbLine
  8
AM_0
 62
256
370
-1
  6
ByLayer
 10
16.278773238853429
 20
37.632030851048029
 30
0.0
 11
13.87877323885343
 21
37.632030851048029
 31
0.0
  0
LINE
  5
AA
100
AcDbEntity
100
AcDbLine
  8
AM_0
 62
256
370
-1
  6
ByLayer
 10
16.278773238853429
 20
38.714912556056532
 30
0.0
 11
16.278773238853429
 21
37.632030851048029
 31
0.0
  0
LINE
  5
AB
100
AcDbEntity
100
AcDbLine
  8
AM_0
 62
256
370
-1
  6
ByLayer
 10
17.07877323885344
 20
38.714912556056532
 30
0.0
 11
16.278773238853429
 21
38.714912556056532
 31
0.0
  0
ARC
  5
AC
100
AcDbEntity
  8
AM_0
 62
256
370
-1
  6
ByLayer
100
AcDbCircle
 10
17.07877323885344
 20
37.214912556056547
 30
0.0
 40
1.4999999999999929
100
AcDbArc
 50
0.0
 51
90.0
  0
LINE
  5
AD
100
AcDbEntity
100
AcDbLine
  8
AM_0
 62
256
370
-1
  6
ByLayer
 10
18.578773238853429
 20
36.414912556056542
 30
0.0
 11
18.578773238853429
 21
37.214912556056532
 31
0.0
  0
LINE
  5
AE
100
AcDbEntity
100
AcDbLine
  8
AM_0
 62
256
370
-1
  6
ByLayer
 10
17.495891533844929
 20
36.414912556056542
 30
0.0
 11
18.578773238853429
 21
36.414912556056542
 31
0.0
  0
LINE
  5
AF
100
AcDbEntity
100
AcDbLine
  8
AM_0
 62
256
370
-1
  6
ByLayer
 10
17.495891533844929
 20
34.01491255605653
 30
0.0
 11
17.495891533844929
 21
36.414912556056542
 31
0.0
  0
LINE
  5
B0
100
AcDbEntity
100
AcDbLine
  8
AM_0
 62
256
370
-1
  6
ByLayer
 10
18.578773238853429
 20
34.01491255605653
 30
0.0
 11
17.495891533844929
 21
34.01491255605653
 31
0.0
  0
LINE
  5
B1
100
AcDbEntity
100
AcDbLine
  8
AM_0
 62
256
370
-1
  6
ByLayer
 10
18.578773238853429
 20
32.214912556056532
 30
0.0
 11
18.578773238853429
 21
34.01491255605653
 31
0.0
  0
LINE
  5
B2
100
AcDbEntity
100
AcDbLine
  8
AM_0
 62
256
370
-1
  6
ByLayer
 10
16.383773238853429
 20
32.214912556056532
 30
0.0
 11
18.578773238853429
 21
32.214912556056532
 31
0.0
  0
LINE
  5
B3
100
AcDbEntity
100
AcDbLine
  8
AM_0
 62
256
370
-1
  6
ByLayer
 10
16.383773238853429
 20
32.792676116276027
 30
0.0
 11
16.383773238853429
 21
32.214912556056532
 31
0.0
  0
LINE
  5
B4
100
AcDbEntity
100
AcDbLine
  8
AM_0
 62
256
370
-1
  6
ByLayer
 10
13.87877323885343
 20
32.799072642953753
 30
0.0
 11
16.383773238853429
 21
32.792676116276027
 31
0.0
  0
LINE
  5
B5
100
AcDbEntity
100
AcDbLine
  8
AM_0
 62
256
370
-1
  6
ByLayer
 10
13.87877323885343
 20
32.214912556056532
 30
0.0
 11
13.87877323885343
 21
32.799072642953753
 31
0.0
  0
LINE
  5
B6
100
AcDbEntity
100
AcDbLine
  8
AM_0
 62
256
370
-1
  6
ByLayer
 10
12.078773238853429
 20
32.214912556056532
 30
0.0
 11
13.87877323885343
 21
32.214912556056532
 31
0.0
  0
LINE
  5
B7
100
AcDbEntity
100
AcDbLine
  8
AM_0
 62
256
370
-1
  6
ByLayer
 10
12.078773238853429
 20
33.909912556056582
 30
0.0
 11
12.078773238853429
 21
32.214912556056532
 31
0.0
  0
LINE
  5
B8
100
AcDbEntity
100
AcDbLine
  8
AM_0
 62
256
370
-1
  6
ByLayer
 10
12.65653679907293
 20
33.909912556056568
 30
0.0
 11
12.078773238853429
 21
33.909912556056582
 31
0.0
  0
LINE
  5
B9
100
AcDbEntity
100
AcDbLine
  8
AM_0
 62
256
370
-1
  6
ByLayer
 10
12.662933325750661
 20
36.414912556056542
 30
0.0
 11
12.65653679907293
 21
33.909912556056568
 31
0.0
  0
LINE
  5
BA
100
AcDbEntity
100
AcDbLine
  8
AM_0
 62
256
370
-1
  6
ByLayer
 10
12.078773238853429
 20
36.414912556056542
 30
0.0
 11
12.662933325750661
 21
36.414912556056542
 31
0.0
  0
LINE
  5
BB
100
AcDbEntity
100
AcDbLine
  8
AM_0
 62
256
370
-1
  6
ByLayer
 10
12.078773238853421
 20
-35.985087443943478
 30
0.0
 11
12.078773238853421
 21
-38.285087443943468
 31
0.0
  0
LINE
  5
BC
100
AcDbEntity
100
AcDbLine
  8
AM_0
 62
256
370
-1
  6
ByLayer
 10
12.66293332575065
 20
-35.985087443943478
 30
0.0
 11
12.078773238853421
 21
-35.985087443943478
 31
0.0
  0
LINE
  5
BD
100
AcDbEntity
100
AcDbLine
  8
AM_0
 62
256
370
-1
  6
ByLayer
 10
12.65653679907294
 20
-33.480087443943511
 30
0.0
 11
12.66293332575065
 21
-35.985087443943478
 31
0.0
  0
LINE
  5
BE
100
AcDbEntity
100
AcDbLine
  8
AM_0
 62
256
370
-1
  6
ByLayer
 10
12.078773238853421
 20
-33.480087443943518
 30
0.0
 11
12.65653679907294
 21
-33.480087443943511
 31
0.0
  0
LINE
  5
BF
100
AcDbEntity
100
AcDbLine
  8
AM_0
 62
256
370
-1
  6
ByLayer
 10
12.078773238853421
 20
-31.785087443943471
 30
0.0
 11
12.078773238853421
 21
-33.480087443943518
 31
0.0
  0
LINE
  5
C0
100
AcDbEntity
100
AcDbLine
  8
AM_0
 62
256
370
-1
  6
ByLayer
 10
13.87877323885342
 20
-31.785087443943471
 30
0.0
 11
12.078773238853421
 21
-31.785087443943471
 31
0.0
  0
LINE
  5
C1
100
AcDbEntity
100
AcDbLine
  8
AM_0
 62
256
370
-1
  6
ByLayer
 10
13.87877323885342
 20
-32.369247530840703
 30
0.0
 11
13.87877323885342
 21
-31.785087443943471
 31
0.0
  0
LINE
  5
C2
100
AcDbEntity
100
AcDbLine
  8
AM_0
 62
256
370
-1
  6
ByLayer
 10
16.383773238853419
 20
-32.362851004162977
 30
0.0
 11
13.87877323885342
 21
-32.369247530840703
 31
0.0
  0
LINE
  5
C3
100
AcDbEntity
100
AcDbLine
  8
AM_0
 62
256
370
-1
  6
ByLayer
 10
16.383773238853419
 20
-31.785087443943471
 30
0.0
 11
16.383773238853419
 21
-32.362851004162977
 31
0.0
  0
LINE
  5
C4
100
AcDbEntity
100
AcDbLine
  8
AM_0
 62
256
370
-1
  6
ByLayer
 10
18.578773238853429
 20
-31.785087443943471
 30
0.0
 11
16.383773238853419
 21
-31.785087443943471
 31
0.0
  0
LINE
  5
C5
100
AcDbEntity
100
AcDbLine
  8
AM_0
 62
256
370
-1
  6
ByLayer
 10
18.578773238853429
 20
-33.585087443943472
 30
0.0
 11
18.578773238853429
 21
-31.785087443943471
 31
0.0
  0
LINE
  5
C6
100
AcDbEntity
100
AcDbLine
  8
AM_0
 62
256
370
-1
  6
ByLayer
 10
17.495891533844919
 20
-33.585087443943472
 30
0.0
 11
18.578773238853429
 21
-33.585087443943472
 31
0.0
  0
LINE
  5
C7
100
AcDbEntity
100
AcDbLine
  8
AM_0
 62
256
370
-1
  6
ByLayer
 10
17.495891533844929
 20
-35.985087443943478
 30
0.0
 11
17.495891533844919
 21
-33.585087443943472
 31
0.0
  0
LINE
  5
C8
100
AcDbEntity
100
AcDbLine
  8
AM_0
 62
256
370
-1
  6
ByLayer
 10
18.578773238853429
 20
-35.985087443943478
 30
0.0
 11
17.495891533844929
 21
-35.985087443943478
 31
0.0
  0
LINE
  5
C9
100
AcDbEntity
100
AcDbLine
  8
AM_0
 62
256
370
-1
  6
ByLayer
 10
18.578773238853419
 20
-36.785087443943489
 30
0.0
 11
18.578773238853429
 21
-35.985087443943478
 31
0.0
  0
ARC
  5
CA
100
AcDbEntity
  8
AM_0
 62
256
370
-1
  6
ByLayer
100
AcDbCircle
 10
17.07877323885344
 20
-36.785087443943489
 30
0.0
 40
1.499999999999986
100
AcDbArc
 50
270.0
 51
0.0000008537736463
  0
LINE
  5
CB
100
AcDbEntity
100
AcDbLine
  8
AM_0
 62
256
370
-1
  6
ByLayer
 10
16.278773238853411
 20
-38.285087443943468
 30
0.0
 11
17.078773238853429
 21
-38.285087443943468
 31
0.0
  0
LINE
  5
CC
100
AcDbEntity
100
AcDbLine
  8
AM_0
 62
256
370
-1
  6
ByLayer
 10
16.278773238853411
 20
-37.202205738934971
 30
0.0
 11
16.278773238853411
 21
-38.285087443943468
 31
0.0
  0
LINE
  5
CD
100
AcDbEntity
100
AcDbLine
  8
AM_0
 62
256
370
-1
  6
ByLayer
 10
13.87877323885342
 20
-37.202205738934971
 30
0.0
 11
16.278773238853411
 21
-37.202205738934971
 31
0.0
  0
LINE
  5
CE
100
AcDbEntity
100
AcDbLine
  8
AM_0
 62
256
370
-1
  6
ByLayer
 10
13.87877323885342
 20
-38.285087443943468
 30
0.0
 11
13.87877323885342
 21
-37.202205738934971
 31
0.0
  0
LINE
  5
CF
100
AcDbEntity
100
AcDbLine
  8
AM_0
 62
256
370
-1
  6
ByLayer
 10
-4.1202267611465704
 20
-13.08508744394347
 30
0.0
 11
-6.6202267611465704
 21
-13.08508744394347
 31
0.0
  0
LINE
  5
D0
100
AcDbEntity
100
AcDbLine
  8
AM_0
 62
256
370
-1
  6
ByLayer
 10
-4.1202267611465704
 20
-13.875087443943469
 30
0.0
 11
-4.1202267611465704
 21
-13.08508744394347
 31
0.0
  0
LINE
  5
D1
100
AcDbEntity
100
AcDbLine
  8
AM_0
 62
256
370
-1
  6
ByLayer
 10
-3.2212267611465388
 20
-14.77508744394351
 30
0.0
 11
-4.1202267611465704
 21
-13.875087443943469
 31
0.0
  0
ARC
  5
D2
100
AcDbEntity
  8
AM_0
 62
256
370
-1
  6
ByLayer
100
AcDbCircle
 10
0.0810000000000026
 20
-19.78460822122026
 30
0.0
 40
5.9999999999999867
100
AcDbArc
 50
101.0620012007051
 51
123.39247754739881
  0
LINE
  5
D3
100
AcDbEntity
100
AcDbLine
  8
AM_0
 62
256
370
-1
  6
ByLayer
 10
-1.0702267611465699
 20
-13.08508744394347
 30
0.0
 11
-1.0702267611465699
 21
-13.89608744394352
 31
0.0
  0
LINE
  5
D4
100
AcDbEntity
100
AcDbLine
  8
AM_0
 62
256
370
-1
  6
ByLayer
 10
1.2297732388534299
 20
-13.08508744394347
 30
0.0
 11
-1.0702267611465699
 21
-13.08508744394347
 31
0.0
  0
LINE
  5
D5
100
AcDbEntity
100
AcDbLine
  8
AM_0
 62
256
370
-1
  6
ByLayer
 10
1.2297732388534299
 20
-13.89608744394352
 30
0.0
 11
1.2297732388534299
 21
-13.08508744394347
 31
0.0
  0
ARC
  5
D6
100
AcDbEntity
  8
AM_0
 62
256
370
-1
  6
ByLayer
100
AcDbCircle
 10
0.0785464777068556
 20
-19.784608221220299
 30
0.0
 40
6.0000000000000346
100
AcDbArc
 50
56.607522452601494
 51
78.937998799294974
  0
LINE
  5
D7
100
AcDbEntity
100
AcDbLine
  8
AM_0
 62
256
370
-1
  6
ByLayer
 10
4.27977323885343
 20
-13.875087443943469
 30
0.0
 11
3.380773238853402
 21
-14.7750874439435
 31
0.0
  0
LINE
  5
D8
100
AcDbEntity
100
AcDbLine
  8
AM_0
 62
256
370
-1
  6
ByLayer
 10
4.27977323885343
 20
-13.08508744394347
 30
0.0
 11
4.27977323885343
 21
-13.875087443943469
 31
0.0
  0
LINE
  5
D9
100
AcDbEntity
100
AcDbLine
  8
AM_0
 62
256
370
-1
  6
ByLayer
 10
6.77977323885343
 20
-13.08508744394347
 30
0.0
 11
4.27977323885343
 21
-13.08508744394347
 31
0.0
  0
LINE
  5
DA
100
AcDbEntity
100
AcDbLine
  8
AM_0
 62
256
370
-1
  6
ByLayer
 10
6.77977323885343
 20
-15.58508744394347
 30
0.0
 11
6.77977323885343
 21
-13.08508744394347
 31
0.0
  0
LINE
  5
DB
100
AcDbEntity
100
AcDbLine
  8
AM_0
 62
256
370
-1
  6
ByLayer
 10
5.9887732388534296
 20
-15.58508744394347
 30
0.0
 11
6.77977323885343
 21
-15.58508744394347
 31
0.0
  0
LINE
  5
DC
100
AcDbEntity
100
AcDbLine
  8
AM_0
 62
256
370
-1
  6
ByLayer
 10
5.0897732388534171
 20
-16.484087443943491
 30
0.0
 11
5.9887732388534296
 21
-15.58508744394347
 31
0.0
  0
ARC
  5
DD
100
AcDbEntity
  8
AM_0
 62
256
370
-1
  6
ByLayer
100
AcDbCircle
 10
0.080252461576646
 20
-19.78631420509009
 30
0.0
 40
6.0000000000000364
100
AcDbArc
 50
11.062001200705449
 51
33.392477547399139
  0
LINE
  5
DE
100
AcDbEntity
100
AcDbLine
  8
AM_0
 62
256
370
-1
  6
ByLayer
 10
6.77977323885343
 20
-18.635087443943469
 30
0.0
 11
5.9687732388534238
 21
-18.635087443943469
 31
0.0
  0
LINE
  5
DF
100
AcDbEntity
100
AcDbLine
  8
AM_0
 62
256
370
-1
  6
ByLayer
 10
6.77977323885343
 20
-20.93508744394347
 30
0.0
 11
6.77977323885343
 21
-18.635087443943469
 31
0.0
  0
LINE
  5
E0
100
AcDbEntity
100
AcDbLine
  8
AM_0
 62
256
370
-1
  6
ByLayer
 10
5.9687732388534247
 20
-20.935087443943459
 30
0.0
 11
6.77977323885343
 21
-20.93508744394347
 31
0.0
  0
ARC
  5
E1
100
AcDbEntity
  8
AM_0
 62
256
370
-1
  6
ByLayer
100
AcDbCircle
 10
0.0802524615767588
 20
-19.783860682796899
 30
0.0
 40
5.9999999999999174
100
AcDbArc
 50
326.60752245260068
 51
348.93799879929492
  0
LINE
  5
E2
100
AcDbEntity
100
AcDbLine
  8
AM_0
 62
256
370
-1
  6
ByLayer
 10
5.9887732388534296
 20
-23.98508744394347
 30
0.0
 11
5.089773238853418
 21
-23.086087443943459
 31
0.0
  0
LINE
  5
E3
100
AcDbEntity
100
AcDbLine
  8
AM_0
 62
256
370
-1
  6
ByLayer
 10
6.77977323885343
 20
-23.98508744394347
 30
0.0
 11
5.9887732388534296
 21
-23.98508744394347
 31
0.0
  0
LINE
  5
E4
100
AcDbEntity
100
AcDbLine
  8
AM_0
 62
256
370
-1
  6
ByLayer
 10
6.77977323885343
 20
-26.48508744394347
 30
0.0
 11
6.77977323885343
 21
-23.98508744394347
 31
0.0
  0
LINE
  5
E5
100
AcDbEntity
100
AcDbLine
  8
AM_0
 62
256
370
-1
  6
ByLayer
 10
4.27977323885343
 20
-26.48508744394347
 30
0.0
 11
6.77977323885343
 21
-26.48508744394347
 31
0.0
  0
LINE
  5
E6
100
AcDbEntity
100
AcDbLine
  8
AM_0
 62
256
370
-1
  6
ByLayer
 10
4.27977323885343
 20
-25.695087443943471
 30
0.0
 11
4.27977323885343
 21
-26.48508744394347
 31
0.0
  0
LINE
  5
E7
100
AcDbEntity
100
AcDbLine
  8
AM_0
 62
256
370
-1
  6
ByLayer
 10
3.3807732388534011
 20
-24.795087443943441
 30
0.0
 11
4.27977323885343
 21
-25.695087443943471
 31
0.0
  0
ARC
  5
E8
100
AcDbEntity
  8
AM_0
 62
256
370
-1
  6
ByLayer
100
AcDbCircle
 10
0.0785464777068023
 20
-19.785566666666519
 30
0.0
 40
6.0000000000001643
100
AcDbArc
 50
281.06200120070542
 51
303.3924775473983
  0
LINE
  5
E9
100
AcDbEntity
100
AcDbLine
  8
AM_0
 62
256
370
-1
  6
ByLayer
 10
1.2297732388534299
 20
-26.48508744394347
 30
0.0
 11
1.2297732388534299
 21
-25.674087443943421
 31
0.0
  0
LINE
  5
EA
100
AcDbEntity
100
AcDbLine
  8
AM_0
 62
256
370
-1
  6
ByLayer
 10
-1.0702267611465699
 20
-26.48508744394347
 30
0.0
 11
1.2297732388534299
 21
-26.48508744394347
 31
0.0
  0
LINE
  5
EB
100
AcDbEntity
100
AcDbLine
  8
AM_0
 62
256
370
-1
  6
ByLayer
 10
-1.070226761146571
 20
-25.674087443943421
 30
0.0
 11
-1.0702267611465699
 21
-26.48508744394347
 31
0.0
  0
ARC
  5
EC
100
AcDbEntity
  8
AM_0
 62
256
370
-1
  6
ByLayer
100
AcDbCircle
 10
0.0809999999999547
 20
-19.785566666666799
 30
0.0
 40
5.999999999999873
100
AcDbArc
 50
236.60752245260099
 51
258.9379987992952
  0
LINE
  5
ED
100
AcDbEntity
100
AcDbLine
  8
AM_0
 62
256
370
-1
  6
ByLayer
 10
-4.1202267611465704
 20
-25.695087443943471
 30
0.0
 11
-3.2212267611465411
 21
-24.795087443943441
 31
0.0
  0
LINE
  5
EE
100
AcDbEntity
100
AcDbLine
  8
AM_0
 62
256
370
-1
  6
ByLayer
 10
-4.1202267611465704
 20
-26.48508744394347
 30
0.0
 11
-4.1202267611465704
 21
-25.695087443943471
 31
0.0
  0
LINE
  5
EF
100
AcDbEntity
100
AcDbLine
  8
AM_0
 62
256
370
-1
  6
ByLayer
 10
-6.6202267611465704
 20
-26.48508744394347
 30
0.0
 11
-4.1202267611465704
 21
-26.48508744394347
 31
0.0
  0
LINE
  5
F0
100
AcDbEntity
100
AcDbLine
  8
AM_0
 62
256
370
-1
  6
ByLayer
 10
-6.6202267611465704
 20
-23.98508744394347
 30
0.0
 11
-6.6202267611465704
 21
-26.48508744394347
 31
0.0
  0
LINE
  5
F1
100
AcDbEntity
100
AcDbLine
  8
AM_0
 62
256
370
-1
  6
ByLayer
 10
-5.8302267611465686
 20
-23.98508744394347
 30
0.0
 11
-6.6202267611465704
 21
-23.98508744394347
 31
0.0
  0
LINE
  5
F2
100
AcDbEntity
100
AcDbLine
  8
AM_0
 62
256
370
-1
  6
ByLayer
 10
-4.9312267611465526
 20
-23.086087443943459
 30
0.0
 11
-5.8302267611465686
 21
-23.98508744394347
 31
0.0
  0
ARC
  5
F3
100
AcDbEntity
  8
AM_0
 62
256
370
-1
  6
ByLayer
100
AcDbCircle
 10
0.0797153424816495
 20
-19.786017863754871
 30
0.0
 40
5.9999999999999876
100
AcDbArc
 50
191.04101240805841
 51
213.3678085547391
  0
LINE
  5
F4
100
AcDbEntity
100
AcDbLine
  8
AM_0
 62
256
370
-1
  6
ByLayer
 10
-6.6202267611465704
 20
-20.93508744394347
 30
0.0
 11
-5.8092267611465616
 21
-20.93508744394347
 31
0.0
  0
LINE
  5
F5
100
AcDbEntity
100
AcDbLine
  8
AM_0
 62
256
370
-1
  6
ByLayer
 10
-6.6202267611465704
 20
-18.635087443943469
 30
0.0
 11
-6.6202267611465704
 21
-20.93508744394347
 31
0.0
  0
LINE
  5
F6
100
AcDbEntity
100
AcDbLine
  8
AM_0
 62
256
370
-1
  6
ByLayer
 10
-5.8092267611465616
 20
-18.635087443943469
 30
0.0
 11
-6.6202267611465704
 21
-18.635087443943469
 31
0.0
  0
ARC
  5
F7
100
AcDbEntity
  8
AM_0
 62
256
370
-1
  6
ByLayer
100
AcDbCircle
 10
0.0797153424817827
 20
-19.784157024132121
 30
0.0
 40
6.0000000000001288
100
AcDbArc
 50
146.63219144526121
 51
168.95898759194139
  0
LINE
  5
F8
100
AcDbEntity
100
AcDbLine
  8
AM_0
 62
256
370
-1
  6
ByLayer
 10
-5.8302267611465686
 20
-15.58508744394347
 30
0.0
 11
-4.9312267611465543
 21
-16.484087443943491
 31
0.0
  0
LINE
  5
F9
100
AcDbEntity
100
AcDbLine
  8
AM_0
 62
256
370
-1
  6
ByLayer
 10
-6.6202267611465704
 20
-15.58508744394347
 30
0.0
 11
-5.8302267611465686
 21
-15.58508744394347
 31
0.0
  0
LINE
  5
FA
100
AcDbEntity
100
AcDbLine
  8
AM_0
 62
256
370
-1
  6
ByLayer
 10
-4.2012267611465699
 20
26.914912556056532
 30
0.0
 11
-6.7012267611465699
 21
26.914912556056532
 31
0.0
  0
LINE
  5
FB
100
AcDbEntity
100
AcDbLine
  8
AM_0
 62
256
370
-1
  6
ByLayer
 10
-4.2012267611465699
 20
26.124912556056529
 30
0.0
 11
-4.2012267611465699
 21
26.914912556056532
 31
0.0
  0
LINE
  5
FC
100
AcDbEntity
100
AcDbLine
  8
AM_0
 62
256
370
-1
  6
ByLayer
 10
-3.3022267611465419
 20
25.224912556056498
 30
0.0
 11
-4.2012267611465699
 21
26.124912556056529
 31
0.0
  0
ARC
  5
FD
100
AcDbEntity
  8
AM_0
 62
256
370
-1
  6
ByLayer
100
AcDbCircle
 10
0.0000000000000997
 20
20.215391778779491
 30
0.0
 40
6.0000000000002558
100
AcDbArc
 50
101.06200120070559
 51
123.3924775473982
  0
LINE
  5
FE
100
AcDbEntity
100
AcDbLine
  8
AM_0
 62
256
370
-1
  6
ByLayer
 10
-1.1512267611465701
 20
26.914912556056532
 30
0.0
 11
-1.1512267611465701
 21
26.103912556056478
 31
0.0
  0
LINE
  5
FF
100
AcDbEntity
100
AcDbLine
  8
AM_0
 62
256
370
-1
  6
ByLayer
 10
1.14877323885343
 20
26.914912556056532
 30
0.0
 11
-1.1512267611465701
 21
26.914912556056532
 31
0.0
  0
LINE
  5
100
100
AcDbEntity
100
AcDbLine
  8
AM_0
 62
256
370
-1
  6
ByLayer
 10
1.14877323885343
 20
26.103912556056478
 30
0.0
 11
1.14877323885343
 21
26.914912556056532
 31
0.0
  0
ARC
  5
101
100
AcDbEntity
  8
AM_0
 62
256
370
-1
  6
ByLayer
100
AcDbCircle
 10
-0.0024535222931039
 20
20.2153917787798
 30
0.0
 40
5.9999999999999227
100
AcDbArc
 50
56.607522452601252
 51
78.937998799295144
  0
LINE
  5
102
100
AcDbEntity
100
AcDbLine
  8
AM_0
 62
256
370
-1
  6
ByLayer
 10
4.1987732388534296
 20
26.124912556056529
 30
0.0
 11
3.299773238853402
 21
25.224912556056498
 31
0.0
  0
LINE
  5
103
100
AcDbEntity
100
AcDbLine
  8
AM_0
 62
256
370
-1
  6
ByLayer
 10
4.1987732388534296
 20
26.914912556056532
 30
0.0
 11
4.1987732388534296
 21
26.124912556056529
 31
0.0
  0
LINE
  5
104
100
AcDbEntity
100
AcDbLine
  8
AM_0
 62
256
370
-1
  6
ByLayer
 10
6.6987732388534287
 20
26.914912556056532
 30
0.0
 11
4.1987732388534296
 21
26.914912556056532
 31
0.0
  0
LINE
  5
105
100
AcDbEntity
100
AcDbLine
  8
AM_0
 62
256
370
-1
  6
ByLayer
 10
6.6987732388534287
 20
24.414912556056532
 30
0.0
 11
6.6987732388534287
 21
26.914912556056532
 31
0.0
  0
LINE
  5
106
100
AcDbEntity
100
AcDbLine
  8
AM_0
 62
256
370
-1
  6
ByLayer
 10
5.9087732388534304
 20
24.414912556056532
 30
0.0
 11
6.6987732388534287
 21
24.414912556056532
 31
0.0
  0
LINE
  5
107
100
AcDbEntity
100
AcDbLine
  8
AM_0
 62
256
370
-1
  6
ByLayer
 10
5.0087732388534167
 20
23.515912556056509
 30
0.0
 11
5.9087732388534304
 21
24.414912556056532
 31
0.0
  0
ARC
  5
108
100
AcDbEntity
  8
AM_0
 62
256
370
-1
  6
ByLayer
100
AcDbCircle
 10
-0.0007475384231919
 20
20.213685794909971
 30
0.0
 40
5.9999999999998659
100
AcDbArc
 50
11.06200120070516
 51
33.392477547399473
  0
LINE
  5
109
100
AcDbEntity
100
AcDbLine
  8
AM_0
 62
256
370
-1
  6
ByLayer
 10
6.6987732388534287
 20
21.364912556056531
 30
0.0
 11
5.8877732388534243
 21
21.364912556056531
 31
0.0
  0
LINE
  5
10A
100
AcDbEntity
100
AcDbLine
  8
AM_0
 62
256
370
-1
  6
ByLayer
 10
6.6987732388534287
 20
19.06491255605653
 30
0.0
 11
6.6987732388534287
 21
21.364912556056531
 31
0.0
  0
LINE
  5
10B
100
AcDbEntity
100
AcDbLine
  8
AM_0
 62
256
370
-1
  6
ByLayer
 10
5.8877732388534252
 20
19.06491255605652
 30
0.0
 11
6.6987732388534287
 21
19.06491255605653
 31
0.0
  0
ARC
  5
10C
100
AcDbEntity
  8
AM_0
 62
256
370
-1
  6
ByLayer
100
AcDbCircle
 10
-0.0007475384232976
 20
20.216139317203119
 30
0.0
 40
5.999999999999976
100
AcDbArc
 50
326.60752245260079
 51
348.93799879929458
  0
LINE
  5
10D
100
AcDbEntity
100
AcDbLine
  8
AM_0
 62
256
370
-1
  6
ByLayer
 10
5.9087732388534304
 20
16.01491255605653
 30
0.0
 11
5.0087732388534194
 21
16.913912556056541
 31
0.0
  0
LINE
  5
10E
100
AcDbEntity
100
AcDbLine
  8
AM_0
 62
256
370
-1
  6
ByLayer
 10
6.6987732388534287
 20
16.01491255605653
 30
0.0
 11
5.9087732388534304
 21
16.01491255605653
 31
0.0
  0
LINE
  5
10F
100
AcDbEntity
100
AcDbLine
  8
AM_0
 62
256
370
-1
  6
ByLayer
 10
6.6987732388534287
 20
13.51491255605653
 30
0.0
 11
6.6987732388534287
 21
16.01491255605653
 31
0.0
  0
LINE
  5
110
100
AcDbEntity
100
AcDbLine
  8
AM_0
 62
256
370
-1
  6
ByLayer
 10
4.1987732388534296
 20
13.51491255605653
 30
0.0
 11
6.6987732388534287
 21
13.51491255605653
 31
0.0
  0
LINE
  5
111
100
AcDbEntity
100
AcDbLine
  8
AM_0
 62
256
370
-1
  6
ByLayer
 10
4.1987732388534296
 20
14.30491255605653
 30
0.0
 11
4.1987732388534296
 21
13.51491255605653
 31
0.0
  0
LINE
  5
112
100
AcDbEntity
100
AcDbLine
  8
AM_0
 62
256
370
-1
  6
ByLayer
 10
3.2997732388534029
 20
15.204912556056559
 30
0.0
 11
4.1987732388534296
 21
14.30491255605653
 31
0.0
  0
ARC
  5
113
100
AcDbEntity
  8
AM_0
 62
256
370
-1
  6
ByLayer
100
AcDbCircle
 10
-0.0024535222931534
 20
20.214433333333389
 30
0.0
 40
6.0000000000000613
100
AcDbArc
 50
281.06200120070508
 51
303.39247754739841
  0
LINE
  5
114
100
AcDbEntity
100
AcDbLine
  8
AM_0
 62
256
370
-1
  6
ByLayer
 10
1.14877323885343
 20
13.51491255605653
 30
0.0
 11
1.14877323885343
 21
14.325912556056579
 31
0.0
  0
LINE
  5
115
100
AcDbEntity
100
AcDbLine
  8
AM_0
 62
256
370
-1
  6
ByLayer
 10
-1.1512267611465701
 20
13.51491255605653
 30
0.0
 11
1.14877323885343
 21
13.51491255605653
 31
0.0
  0
LINE
  5
116
100
AcDbEntity
100
AcDbLine
  8
AM_0
 62
256
370
-1
  6
ByLayer
 10
-1.151226761146575
 20
14.325912556056579
 30
0.0
 11
-1.1512267611465701
 21
13.51491255605653
 31
0.0
  0
ARC
  5
117
100
AcDbEntity
  8
AM_0
 62
256
370
-1
  6
ByLayer
100
AcDbCircle
 10
0.0000000000000666
 20
20.21443333333351
 30
0.0
 40
6.0000000000001856
100
AcDbArc
 50
236.60752245260178
 51
258.93799879929452
  0
LINE
  5
118
100
AcDbEntity
100
AcDbLine
  8
AM_0
 62
256
370
-1
  6
ByLayer
 10
-4.2012267611465699
 20
14.30491255605653
 30
0.0
 11
-3.3022267611465388
 21
15.204912556056559
 31
0.0
  0
LINE
  5
119
100
AcDbEntity
100
AcDbLine
  8
AM_0
 62
256
370
-1
  6
ByLayer
 10
-4.2012267611465699
 20
13.51491255605653
 30
0.0
 11
-4.2012267611465699
 21
14.30491255605653
 31
0.0
  0
LINE
  5
11A
100
AcDbEntity
100
AcDbLine
  8
AM_0
 62
256
370
-1
  6
ByLayer
 10
-6.7012267611465699
 20
13.51491255605653
 30
0.0
 11
-4.2012267611465699
 21
13.51491255605653
 31
0.0
  0
LINE
  5
11B
100
AcDbEntity
100
AcDbLine
  8
AM_0
 62
256
370
-1
  6
ByLayer
 10
-6.7012267611465699
 20
16.01491255605653
 30
0.0
 11
-6.7012267611465699
 21
13.51491255605653
 31
0.0
  0
LINE
  5
11C
100
AcDbEntity
100
AcDbLine
  8
AM_0
 62
256
370
-1
  6
ByLayer
 10
-5.9112267611465708
 20
16.01491255605653
 30
0.0
 11
-6.7012267611465699
 21
16.01491255605653
 31
0.0
  0
LINE
  5
11D
100
AcDbEntity
100
AcDbLine
  8
AM_0
 62
256
370
-1
  6
ByLayer
 10
-5.0112267611465562
 20
16.913912556056552
 30
0.0
 11
-5.9112267611465708
 21
16.01491255605653
 31
0.0
  0
ARC
  5
11E
100
AcDbEntity
  8
AM_0
 62
256
370
-1
  6
ByLayer
100
AcDbCircle
 10
-0.0017059838700675
 20
20.21613931720303
 30
0.0
 40
5.999999999999738
100
AcDbArc
 50
191.06200120070491
 51
213.39247754739961
  0
LINE
  5
11F
100
AcDbEntity
100
AcDbLine
  8
AM_0
 62
256
370
-1
  6
ByLayer
 10
-6.7012267611465699
 20
19.06491255605653
 30
0.0
 11
-5.8902267611465637
 21
19.06491255605653
 31
0.0
  0
LINE
  5
120
100
AcDbEntity
100
AcDbLine
  8
AM_0
 62
256
370
-1
  6
ByLayer
 10
-6.7012267611465699
 20
21.364912556056531
 30
0.0
 11
-6.7012267611465699
 21
19.06491255605653
 31
0.0
  0
LINE
  5
121
100
AcDbEntity
100
AcDbLine
  8
AM_0
 62
256
370
-1
  6
ByLayer
 10
-5.8902267611465673
 20
21.364912556056531
 30
0.0
 11
-6.7012267611465699
 21
21.364912556056531
 31
0.0
  0
ARC
  5
122
100
AcDbEntity
  8
AM_0
 62
256
370
-1
  6
ByLayer
100
AcDbCircle
 10
-0.0017059838697486
 20
20.2136857949099
 30
0.0
 40
6.000000000000079
100
AcDbArc
 50
146.6075224526009
 51
168.93799879929449
  0
LINE
  5
123
100
AcDbEntity
100
AcDbLine
  8
AM_0
 62
256
370
-1
  6
ByLayer
 10
-5.9112267611465708
 20
24.414912556056532
 30
0.0
 11
-5.0112267611465589
 21
23.51591255605652
 31
0.0
  0
LINE
  5
124
100
AcDbEntity
100
AcDbLine
  8
AM_0
 62
256
370
-1
  6
ByLayer
 10
-6.7012267611465699
 20
24.414912556056532
 30
0.0
 11
-5.9112267611465708
 21
24.414912556056532
 31
0.0
  0
ARC
  5
125
100
AcDbEntity
  8
AM_0
 62
256
370
-1
  6
ByLayer
100
AcDbCircle
 10
-16.421226761146571
 20
6.1149125560565336
 30
0.0
 40
1.4999999999999949
100
AcDbArc
 50
90.0
 51
180.0
  0
LINE
  5
126
100
AcDbEntity
100
AcDbLine
  8
AM_0
 62
256
370
-1
  6
ByLayer
 10
-12.86681694192702
 20
7.6149125560565292
 30
0.0
 11
-16.421226761146571
 21
7.6149125560565292
 31
0.0
  0
ARC
  5
127
100
AcDbEntity
  8
AM_0
 62
256
370
-1
  6
ByLayer
100
AcDbCircle
 10
-12.86681694192702
 20
11.31491255605653
 30
0.0
 40
3.7000000000000011
100
AcDbArc
 50
270.0
 51
314.99999986739408
  0
LINE
  5
128
100
AcDbEntity
100
AcDbLine
  8
AM_0
 62
256
370
-1
  6
ByLayer
 10
-8.4057996659886083
 20
10.54333965121449
 30
0.0
 11
-10.25052185759197
 21
8.6986174596111283
 31
0.0
  0
ARC
  5
129
100
AcDbEntity
  8
AM_0
 62
256
370
-1
  6
ByLayer
100
AcDbCircle
 10
-5.5773725116541906
 20
7.7149125560565359
 30
0.0
 40
3.9999999999999951
100
AcDbArc
 50
90.000000885708531
 51
135.00000059937221
  0
LINE
  5
12A
100
AcDbEntity
100
AcDbLine
  8
AM_0
 62
256
370
-1
  6
ByLayer
 10
5.7349190511951598
 20
11.714912556056531
 30
0.0
 11
-5.5773725734883106
 21
11.714912556056531
 31
0.0
  0
ARC
  5
12B
100
AcDbEntity
  8
AM_0
 62
256
370
-1
  6
ByLayer
100
AcDbCircle
 10
5.7349189893610406
 20
7.7149125560565111
 30
0.0
 40
4.0000000000000204
100
AcDbArc
 50
44.999999400627892
 51
89.999999114291498
  0
LINE
  5
12C
100
AcDbEntity
100
AcDbLine
  8
AM_0
 62
256
370
-1
  6
ByLayer
 10
10.408068335298831
 20
8.6986174596111283
 30
0.0
 11
8.563346143695469
 21
10.54333965121449
 31
0.0
  0
ARC
  5
12D
100
AcDbEntity
  8
AM_0
 62
256
370
-1
  6
ByLayer
100
AcDbCircle
 10
13.024363419633881
 20
11.31491255605652
 30
0.0
 40
3.69999999999999
100
AcDbArc
 50
225.00000013260581
 51
270.0
  0
LINE
  5
12E
100
AcDbEntity
100
AcDbLine
  8
AM_0
 62
256
370
-1
  6
ByLayer
 10
16.578773238853429
 20
7.6149125560565318
 30
0.0
 11
13.024363409046829
 21
7.6149125560565292
 31
0.0
  0
ARC
  5
12F
100
AcDbEntity
  8
AM_0
 62
256
370
-1
  6
ByLayer
100
AcDbCircle
 10
16.578773238853419
 20
6.1149125560565256
 30
0.0
 40
1.5000000000000111
100
AcDbArc
 50
0.0
 51
90.0
  0
LINE
  5
130
100
AcDbEntity
100
AcDbLine
  8
AM_0
 62
256
370
-1
  6
ByLayer
 10
18.078773238853429
 20
-5.6850874439434733
 30
0.0
 11
18.078773238853429
 21
6.1149125560565301
 31
0.0
  0
ARC
  5
131
100
AcDbEntity
  8
AM_0
 62
256
370
-1
  6
ByLayer
100
AcDbCircle
 10
16.57877323885344
 20
-5.6850874439434804
 30
0.0
 40
1.4999999999999909
100
AcDbArc
 50
270.0
 51
0.0
  0
LINE
  5
132
100
AcDbEntity
100
AcDbLine
  8
AM_0
 62
256
370
-1
  6
ByLayer
 10
13.024363419633881
 20
-7.1850874439434742
 30
0.0
 11
16.578773238853429
 21
-7.1850874439434724
 31
0.0
  0
ARC
  5
133
100
AcDbEntity
  8
AM_0
 62
256
370
-1
  6
ByLayer
100
AcDbCircle
 10
13.024363419633881
 20
-10.885087443943471
 30
0.0
 40
3.7000000000000002
100
AcDbArc
 50
90.0
 51
134.99999986739411
  0
LINE
  5
134
100
AcDbEntity
100
AcDbLine
  8
AM_0
 62
256
370
-1
  6
ByLayer
 10
8.5633461436954708
 20
-10.113514539101431
 30
0.0
 11
10.408068335298831
 21
-8.2687923474980707
 31
0.0
  0
ARC
  5
135
100
AcDbEntity
  8
AM_0
 62
256
370
-1
  6
ByLayer
100
AcDbCircle
 10
5.7349189893610548
 20
-7.2850874439434818
 30
0.0
 40
3.9999999999999898
100
AcDbArc
 50
270.00000088570829
 51
315.0000005993723
  0
LINE
  5
136
100
AcDbEntity
100
AcDbLine
  8
AM_0
 62
256
370
-1
  6
ByLayer
 10
-5.5773725734883088
 20
-11.285087443943469
 30
0.0
 11
5.7349190511951607
 21
-11.285087443943469
 31
0.0
  0
ARC
  5
137
100
AcDbEntity
  8
AM_0
 62
256
370
-1
  6
ByLayer
100
AcDbCircle
 10
-5.5773725116541986
 20
-7.2850874439434934
 30
0.0
 40
3.9999999999999778
100
AcDbArc
 50
224.99999940062759
 51
269.9999991142916
  0
LINE
  5
138
100
AcDbEntity
100
AcDbLine
  8
AM_0
 62
256
370
-1
  6
ByLayer
 10
-10.25052185759197
 20
-8.2687923474980707
 30
0.0
 11
-8.4057996659886083
 21
-10.113514539101431
 31
0.0
  0
ARC
  5
139
100
AcDbEntity
  8
AM_0
 62
256
370
-1
  6
ByLayer
100
AcDbCircle
 10
-12.866816941927031
 20
-10.88508744394349
 30
0.0
 40
3.7000000000000202
100
AcDbArc
 50
45.000000132605997
 51
90.0
  0
LINE
  5
13A
100
AcDbEntity
100
AcDbLine
  8
AM_0
 62
256
370
-1
  6
ByLayer
 10
-16.421226761146571
 20
-7.1850874439434724
 30
0.0
 11
-12.866816931339971
 21
-7.1850874439434724
 31
0.0
  0
ARC
  5
13B
100
AcDbEntity
  8
AM_0
 62
256
370
-1
  6
ByLayer
100
AcDbCircle
 10
-16.421226761146571
 20
-5.6850874439434724
 30
0.0
 40
1.5
100
AcDbArc
 50
180.0
 51
270.0
  0
LINE
  5
13C
100
AcDbEntity
100
AcDbLine
  8
AM_0
 62
256
370
-1
  6
ByLayer
 10
-18.421226761146571
 20
-35.985087443943478
 30
0.0
 11
-18.421226761146571
 21
-36.785087443943489
 31
0.0
  0
LINE
  5
13D
100
AcDbEntity
100
AcDbLine
  8
AM_0
 62
256
370
-1
  6
ByLayer
 10
-17.338345056138081
 20
-35.985087443943478
 30
0.0
 11
-18.421226761146571
 21
-35.985087443943478
 31
0.0
  0
LINE
  5
13E
100
AcDbEntity
100
AcDbLine
  8
AM_0
 62
256
370
-1
  6
ByLayer
 10
-17.338345056138081
 20
-33.5850874439435
 30
0.0
 11
-17.338345056138081
 21
-35.985087443943478
 31
0.0
  0
LINE
  5
13F
100
AcDbEntity
100
AcDbLine
  8
AM_0
 62
256
370
-1
  6
ByLayer
 10
-18.421226761146571
 20
-33.5850874439435
 30
0.0
 11
-17.338345056138081
 21
-33.5850874439435
 31
0.0
  0
LINE
  5
140
100
AcDbEntity
100
AcDbLine
  8
AM_0
 62
256
370
-1
  6
ByLayer
 10
-18.421226761146571
 20
-31.785087443943471
 30
0.0
 11
-18.421226761146571
 21
-33.5850874439435
 31
0.0
  0
LINE
  5
141
100
AcDbEntity
100
AcDbLine
  8
AM_0
 62
256
370
-1
  6
ByLayer
 10
-16.22622676114657
 20
-31.785087443943471
 30
0.0
 11
-18.421226761146571
 21
-31.785087443943471
 31
0.0
  0
LINE
  5
142
100
AcDbEntity
100
AcDbLine
  8
AM_0
 62
256
370
-1
  6
ByLayer
 10
-16.22622676114657
 20
-32.362851004162962
 30
0.0
 11
-16.22622676114657
 21
-31.785087443943471
 31
0.0
  0
LINE
  5
143
100
AcDbEntity
100
AcDbLine
  8
AM_0
 62
256
370
-1
  6
ByLayer
 10
-13.721226761146561
 20
-32.369247530840681
 30
0.0
 11
-16.22622676114657
 21
-32.362851004162962
 31
0.0
  0
LINE
  5
144
100
AcDbEntity
100
AcDbLine
  8
AM_0
 62
256
370
-1
  6
ByLayer
 10
-13.721226761146561
 20
-31.785087443943471
 30
0.0
 11
-13.721226761146561
 21
-32.369247530840681
 31
0.0
  0
LINE
  5
145
100
AcDbEntity
100
AcDbLine
  8
AM_0
 62
256
370
-1
  6
ByLayer
 10
-11.921226761146571
 20
-31.785087443943471
 30
0.0
 11
-13.721226761146561
 21
-31.785087443943471
 31
0.0
  0
LINE
  5
146
100
AcDbEntity
100
AcDbLine
  8
AM_0
 62
256
370
-1
  6
ByLayer
 10
-11.921226761146571
 20
-33.480087443943532
 30
0.0
 11
-11.921226761146571
 21
-31.785087443943471
 31
0.0
  0
LINE
  5
147
100
AcDbEntity
100
AcDbLine
  8
AM_0
 62
256
370
-1
  6
ByLayer
 10
-12.498990321366071
 20
-33.480087443943511
 30
0.0
 11
-11.921226761146571
 21
-33.480087443943532
 31
0.0
  0
LINE
  5
148
100
AcDbEntity
100
AcDbLine
  8
AM_0
 62
256
370
-1
  6
ByLayer
 10
-12.505386848043811
 20
-35.985087443943478
 30
0.0
 11
-12.498990321366071
 21
-33.480087443943511
 31
0.0
  0
LINE
  5
149
100
AcDbEntity
100
AcDbLine
  8
AM_0
 62
256
370
-1
  6
ByLayer
 10
-11.921226761146571
 20
-35.985087443943478
 30
0.0
 11
-12.505386848043811
 21
-35.985087443943478
 31
0.0
  0
LINE
  5
14A
100
AcDbEntity
100
AcDbLine
  8
AM_0
 62
256
370
-1
  6
ByLayer
 10
-11.921226761146571
 20
-38.285087443943468
 30
0.0
 11
-11.921226761146571
 21
-35.985087443943478
 31
0.0
  0
LINE
  5
14B
100
AcDbEntity
100
AcDbLine
  8
AM_0
 62
256
370
-1
  6
ByLayer
 10
-13.721226761146561
 20
-38.285087443943468
 30
0.0
 11
-11.921226761146571
 21
-38.285087443943468
 31
0.0
  0
LINE
  5
14C
100
AcDbEntity
100
AcDbLine
  8
AM_0
 62
256
370
-1
  6
ByLayer
 10
-13.721226761146561
 20
-37.202205738934943
 30
0.0
 11
-13.721226761146561
 21
-38.285087443943468
 31
0.0
  0
LINE
  5
14D
100
AcDbEntity
100
AcDbLine
  8
AM_0
 62
256
370
-1
  6
ByLayer
 10
-16.12122676114658
 20
-37.202205738934943
 30
0.0
 11
-13.721226761146561
 21
-37.202205738934943
 31
0.0
  0
LINE
  5
14E
100
AcDbEntity
100
AcDbLine
  8
AM_0
 62
256
370
-1
  6
ByLayer
 10
-16.12122676114658
 20
-38.285087443943468
 30
0.0
 11
-16.12122676114658
 21
-37.202205738934943
 31
0.0
  0
LINE
  5
14F
100
AcDbEntity
100
AcDbLine
  8
AM_0
 62
256
370
-1
  6
ByLayer
 10
-16.921226761146581
 20
-38.285087443943482
 30
0.0
 11
-16.12122676114658
 21
-38.285087443943468
 31
0.0
  0
ARC
  5
150
100
AcDbEntity
  8
AM_0
 62
256
370
-1
  6
ByLayer
100
AcDbCircle
 10
-16.921226761146571
 20
37.214912556056539
 30
0.0
 40
1.4999999999999929
100
AcDbArc
 50
90.0
 51
180.0
  0
LINE
  5
151
100
AcDbEntity
100
AcDbLine
  8
AM_0
 62
256
370
-1
  6
ByLayer
 10
-16.12122676114657
 20
38.714912556056532
 30
0.0
 11
-16.921226761146571
 21
38.714912556056532
 31
0.0
  0
LINE
  5
152
100
AcDbEntity
100
AcDbLine
  8
AM_0
 62
256
370
-1
  6
ByLayer
 10
-16.12122676114657
 20
37.632030851048
 30
0.0
 11
-16.12122676114657
 21
38.714912556056532
 31
0.0
  0
LINE
  5
153
100
AcDbEntity
100
AcDbLine
  8
AM_0
 62
256
370
-1
  6
ByLayer
 10
-13.721226761146569
 20
37.632030851048
 30
0.0
 11
-16.12122676114657
 21
37.632030851048
 31
0.0
  0
LINE
  5
154
100
AcDbEntity
100
AcDbLine
  8
AM_0
 62
256
370
-1
  6
ByLayer
 10
-13.721226761146569
 20
38.714912556056532
 30
0.0
 11
-13.721226761146569
 21
37.632030851048
 31
0.0
  0
LINE
  5
155
100
AcDbEntity
100
AcDbLine
  8
AM_0
 62
256
370
-1
  6
ByLayer
 10
-11.921226761146571
 20
38.714912556056532
 30
0.0
 11
-13.721226761146569
 21
38.714912556056532
 31
0.0
  0
LINE
  5
156
100
AcDbEntity
100
AcDbLine
  8
AM_0
 62
256
370
-1
  6
ByLayer
 10
-11.921226761146571
 20
36.414912556056542
 30
0.0
 11
-11.921226761146571
 21
38.714912556056532
 31
0.0
  0
LINE
  5
157
100
AcDbEntity
100
AcDbLine
  8
AM_0
 62
256
370
-1
  6
ByLayer
 10
-12.5053868480438
 20
36.414912556056542
 30
0.0
 11
-11.921226761146571
 21
36.414912556056542
 31
0.0
  0
LINE
  5
158
100
AcDbEntity
100
AcDbLine
  8
AM_0
 62
256
370
-1
  6
ByLayer
 10
-12.498990321366071
 20
33.909912556056568
 30
0.0
 11
-12.5053868480438
 21
36.414912556056542
 31
0.0
  0
LINE
  5
159
100
AcDbEntity
100
AcDbLine
  8
AM_0
 62
256
370
-1
  6
ByLayer
 10
-11.921226761146571
 20
33.909912556056589
 30
0.0
 11
-12.498990321366071
 21
33.909912556056568
 31
0.0
  0
LINE
  5
15A
100
AcDbEntity
100
AcDbLine
  8
AM_0
 62
256
370
-1
  6
ByLayer
 10
-11.921226761146571
 20
32.214912556056532
 30
0.0
 11
-11.921226761146571
 21
33.909912556056589
 31
0.0
  0
LINE
  5
15B
100
AcDbEntity
100
AcDbLine
  8
AM_0
 62
256
370
-1
  6
ByLayer
 10
-13.721226761146569
 20
32.214912556056532
 30
0.0
 11
-11.921226761146571
 21
32.214912556056532
 31
0.0
  0
LINE
  5
15C
100
AcDbEntity
100
AcDbLine
  8
AM_0
 62
256
370
-1
  6
ByLayer
 10
-13.721226761146569
 20
32.799072642953739
 30
0.0
 11
-13.721226761146569
 21
32.214912556056532
 31
0.0
  0
LINE
  5
15D
100
AcDbEntity
100
AcDbLine
  8
AM_0
 62
256
370
-1
  6
ByLayer
 10
-16.22622676114657
 20
32.79267611627602
 30
0.0
 11
-13.721226761146569
 21
32.799072642953739
 31
0.0
  0
LINE
  5
15E
100
AcDbEntity
100
AcDbLine
  8
AM_0
 62
256
370
-1
  6
ByLayer
 10
-16.22622676114657
 20
32.214912556056532
 30
0.0
 11
-16.22622676114657
 21
32.79267611627602
 31
0.0
  0
LINE
  5
15F
100
AcDbEntity
100
AcDbLine
  8
AM_0
 62
256
370
-1
  6
ByLayer
 10
-18.421226761146571
 20
32.214912556056532
 30
0.0
 11
-16.22622676114657
 21
32.214912556056532
 31
0.0
  0
LINE
  5
160
100
AcDbEntity
100
AcDbLine
  8
AM_0
 62
256
370
-1
  6
ByLayer
 10
-18.421226761146571
 20
34.014912556056558
 30
0.0
 11
-18.421226761146571
 21
32.214912556056532
 31
0.0
  0
LINE
  5
161
100
AcDbEntity
100
AcDbLine
  8
AM_0
 62
256
370
-1
  6
ByLayer
 10
-17.338345056138071
 20
34.014912556056558
 30
0.0
 11
-18.421226761146571
 21
34.014912556056558
 31
0.0
  0
LINE
  5
162
100
AcDbEntity
100
AcDbLine
  8
AM_0
 62
256
370
-1
  6
ByLayer
 10
-17.338345056138071
 20
36.414912556056542
 30
0.0
 11
-17.338345056138071
 21
34.014912556056558
 31
0.0
  0
LINE
  5
163
100
AcDbEntity
100
AcDbLine
  8
AM_0
 62
256
370
-1
  6
ByLayer
 10
-18.421226761146571
 20
36.414912556056542
 30
0.0
 11
-17.338345056138071
 21
36.414912556056542
 31
0.0
  0
LINE
  5
164
100
AcDbEntity
100
AcDbLine
  8
AM_0
 62
256
370
-1
  6
ByLayer
 10
12.078773238853429
 20
38.714912556056532
 30
0.0
 11
12.078773238853429
 21
36.414912556056542
 31
0.0
  0
LINE
  5
165
100
AcDbEntity
100
AcDbLine
  8
AM_0
 62
256
370
-1
  6
ByLayer
 10
12.078773238853421
 20
-38.285087443943468
 30
0.0
 11
13.87877323885342
 21
-38.285087443943468
 31
0.0
  0
LINE
  5
166
100
AcDbEntity
100
AcDbLine
  8
AM_0
 62
256
370
-1
  6
ByLayer
 10
-6.6202267611465704
 20
-13.08508744394347
 30
0.0
 11
-6.6202267611465704
 21
-15.58508744394347
 31
0.0
  0
LINE
  5
167
100
AcDbEntity
100
AcDbLine
  8
AM_0
 62
256
370
-1
  6
ByLayer
 10
-6.7012267611465699
 20
26.914912556056532
 30
0.0
 11
-6.7012267611465699
 21
24.414912556056532
 31
0.0
  0
LINE
  5
168
100
AcDbEntity
100
AcDbLine
  8
AM_0
 62
256
370
-1
  6
ByLayer
 10
-17.921226761146571
 20
6.1149125560565292
 30
0.0
 11
-17.921226761146571
 21
-5.6850874439434724
 31
0.0
  0
ARC
  5
169
100
AcDbEntity
  8
AM_0
 62
256
370
-1
  6
ByLayer
100
AcDbCircle
 10
-16.921226761146571
 20
-36.785087443943489
 30
0.0
 40
1.499999999999996
100
AcDbArc
 50
180.0
 51
270.0
  0
LINE
  5
16A
100
AcDbEntity
100
AcDbLine
  8
AM_0
 62
256
370
-1
  6
ByLayer
 10
-18.421226761146571
 20
37.214912556056532
 30
0.0
 11
-18.421226761146571
 21
36.414912556056542
 31
0.0
  0
LINE
  5
16B
100
AcDbEntity
100
AcDbLine
  8
AM_0
 62
256
370
-1
  6
ByLayer
 10
-16.921226761146571
 20
-30.285087443943471
 30
0.0
 11
-16.921226761146571
 21
-23.885087443943469
 31
0.0
  0
POINT
  5
16C
100
AcDbEntity
100
AcDbPoint
  8
ConnectionPoints
 62
1
420
16711680
370
5
  6
CONTINUOUS
 10
0.0
 20
0.0
 30
0.0
  0
POINT
  5
16D
100
AcDbEntity
100
AcDbPoint
  8
ConnectionPoints
 62
1
420
16711680
370
5
  6
CONTINUOUS
 10
0.0
 20
20.0
 30
0.0
  0
POINT
  5
16E
100
AcDbEntity
100
AcDbPoint
  8
ConnectionPoints
 62
1
420
16711680
370
5
  6
CONTINUOUS
 10
0.0
 20
-20.0
 30
0.0
  0
POINT
  5
16F
100
AcDbEntity
100
AcDbPoint
  8
ConnectionPoints
 62
1
420
16711680
370
5
  6
CONTINUOUS
 10
0.0
 20
40.0
 30
0.0
  0
POINT
  5
170
100
AcDbEntity
100
AcDbPoint
  8
ConnectionPoints
 62
1
420
16711680
370
5
  6
CONTINUOUS
 10
20.0
 20
20.0
 30
0.0
  0
POINT
  5
171
100
AcDbEntity
100
AcDbPoint
  8
ConnectionPoints
 62
1
420
16711680
370
5
  6
CONTINUOUS
 10
20.0
 20
-20.0
 30
0.0
  0
POINT
  5
172
100
AcDbEntity
100
AcDbPoint
  8
ConnectionPoints
 62
1
420
16711680
370
5
  6
CONTINUOUS
 10
0.0
 20
-40.0
 30
0.0
  0
POINT
  5
173
100
AcDbEntity
100
AcDbPoint
  8
ConnectionPoints
 62
1
420
16711680
370
5
  6
CONTINUOUS
 10
-20.0
 20
-20.0
 30
0.0
  0
POINT
  5
174
100
AcDbEntity
100
AcDbPoint
  8
ConnectionPoints
 62
1
420
16711680
370
5
  6
CONTINUOUS
 10
-20.0
 20
20.0
 30
0.0
  0
POINT
  5
175
100
AcDbEntity
100
AcDbPoint
  8
ConnectionPoints
 62
1
420
16711680
370
5
  6
CONTINUOUS
 10
0.0
 20
0.0
 30
0.0
  0
POINT
  5
176
100
AcDbEntity
100
AcDbPoint
  8
ConnectionPoints
 62
1
420
16711680
370
5
  6
CONTINUOUS
 10
0.0
 20
20.0
 30
0.0
  0
POINT
  5
177
100
AcDbEntity
100
AcDbPoint
  8
ConnectionPoints
 62
1
420
16711680
370
5
  6
CONTINUOUS
 10
0.0
 20
-20.0
 30
0.0
  0
ENDSEC
  0
SECTION
  2
OBJECTS
  0
DICTIONARY
  5
C
100
AcDbDictionary
280
0
281
1
  3
ACAD_GROUP
350
D
  3
ACAD_LAYOUT
350
1A
  3
ACAD_MLINESTYLE
350
17
  3
ACAD_PLOTSETTINGS
350
19
  3
ACAD_PLOTSTYLENAME
350
E
  3
AcDbVariableDictionary
350
178
  0
DICTIONARY
  5
D
100
AcDbDictionary
280
0
281
1
  0
ACDBDICTIONARYWDFLT
  5
E
100
AcDbDictionary
281
1
  3
Normal
350
F
100
AcDbDictionaryWithDefault
340
F
  0
ACDBPLACEHOLDER
  5
F
  0
DICTIONARY
  5
17
100
AcDbDictionary
280
0
281
1
  3
Standard
350
18
  0
MLINESTYLE
  5
18
100
AcDbMlineStyle
  2
STANDARD
 70
0
  3

 62
256
 51
90.0
 52
90.0
 71
2
 49
0.5
 62
256
  6
BYLAYER
 49
-0.5
 62
256
  6
BYLAYER
  0
DICTIONARY
  5
19
100
AcDbDictionary
280
0
281
1
  0
DICTIONARY
  5
1A
100
AcDbDictionary
281
1
  3
Layout1
350
1E
  3
Layout2
350
26
  3
Model
350
22
  0
LAYOUT
  5
1E
100
AcDbPlotSettings
  1

  2
C:\Program Files\AutoCAD 2002\plotters\DWF ePlot (optimized for plotting).pc3
  4

  6

 40
0.0
 41
0.0
 42
0.0
 43
0.0
 44
0.0
 45
0.0
 46
0.0
 47
0.0
 48
0.0
 49
0.0
140
0.0
141
0.0
142
1.0
143
1.0
 70
688
 72
0
 73
0
 74
5
  7

 75
16
147
1.0
148
0.0
149
0.0
100
AcDbLayout
  1
Layout1
 70
1
 71
1
 10
0.0
 20
0.0
 11
420.0
 21
297.0
 12
0.0
 22
0.0
 32
0.0
 14
100000000000000000000.0
 24
100000000000000000000.0
 34
100000000000000000000.0
 15
-100000000000000000000.0
 25
-100000000000000000000.0
 35
-100000000000000000000.0
146
0.0
 13
0.0
 23
0.0
 33
0.0
 16
1.0
 26
0.0
 36
0.0
 17
0.0
 27
1.0
 37
0.0
 76
0
330
1B
  0
LAYOUT
  5
22
100
AcDbPlotSettings
  1

  2
C:\Program Files\AutoCAD 2002\plotters\DWF ePlot (optimized for plotting).pc3
  4

  6

 40
0.0
 41
0.0
 42
0.0
 43
0.0
 44
0.0
 45
0.0
 46
0.0
 47
0.0
 48
0.0
 49
0.0
140
0.0
141
0.0
142
1.0
143
1.0
 70
1712
 72
0
 73
0
 74
0
  7

 75
0
147
1.0
148
0.0
149
0.0
100
AcDbLayout
  1
Model
 70
1
 71
0
 10
0.0
 20
0.0
 11
12.0
 21
9.0
 12
0.0
 22
0.0
 32
0.0
 14
0.0
 24
0.0
 34
0.0
 15
0.0
 25
0.0
 35
0.0
146
0.0
 13
0.0
 23
0.0
 33
0.0
 16
1.0
 26
0.0
 36
0.0
 17
0.0
 27
1.0
 37
0.0
 76
0
330
1F
  0
LAYOUT
  5
26
100
AcDbPlotSettings
  1

  2
C:\Program Files\AutoCAD 2002\plotters\DWF ePlot (optimized for plotting).pc3
  4

  6

 40
0.0
 41
0.0
 42
0.0
 43
0.0
 44
0.0
 45
0.0
 46
0.0
 47
0.0
 48
0.0
 49
0.0
140
0.0
141
0.0
142
1.0
143
1.0
 70
688
 72
0
 73
0
 74
5
  7

 75
16
147
1.0
148
0.0
149
0.0
100
AcDbLayout
  1
Layout2
 70
1
 71
2
 10
0.0
 20
0.0
 11
12.0
 21
9.0
 12
0.0
 22
0.0
 32
0.0
 14
0.0
 24
0.0
 34
0.0
 15
0.0
 25
0.0
 35
0.0
146
0.0
 13
0.0
 23
0.0
 33
0.0
 16
1.0
 26
0.0
 36
0.0
 17
0.0
 27
1.0
 37
0.0
 76
0
330
23
  0
DICTIONARY
  5
178
100
AcDbDictionary
281
1
  3
DIMASSOC
350
17A
  3
HIDETEXT
350
179
  0
DICTIONARYVAR
  5
179
100
DictionaryVariables
280
0
  1
2
  0
DICTIONARYVAR
  5
17A
100
DictionaryVariables
280
0
  1
1
  0
ENDSEC
  0
EOF
