ISO-10303-21;
HEADER;
/* Generated by software containing ST-Developer
 * from STEP Tools, Inc. (www.steptools.com) 
 */

FILE_DESCRIPTION(
/* description */ ('Alibre Inc.'),
/* implementation_level */ '2;1');

FILE_NAME(
/* name */ 'export-D3F140BD-4C88-4AA9-AFFA-D857E75F702D',
/* time_stamp */ '2025-02-18T15:00:04+01:00',
/* author */ (''),
/* organization */ (''),
/* preprocessor_version */ 'ST-DEVELOPER v17',
/* originating_system */ 'Alibre',
/* authorisation */ '');

FILE_SCHEMA (('AUTOMOTIVE_DESIGN'));
ENDSEC;

DATA;
#10=STYLED_ITEM('NAME_0',(#18),#343);
#11=MECHANICAL_DESIGN_GEOMETRIC_PRESENTATION_REPRESENTATION('NAME_0',(#10),
#33);
#12=COLOUR_RGB('',1.,0.501960784313725,0.);
#13=FILL_AREA_STYLE_COLOUR('NAME_0',#12);
#14=FILL_AREA_STYLE('NAME_0',(#13));
#15=SURFACE_STYLE_FILL_AREA(#14);
#16=SURFACE_SIDE_STYLE('NAME_0',(#15));
#17=SURFACE_STYLE_USAGE(.POSITIVE.,#16);
#18=PRESENTATION_STYLE_ASSIGNMENT((#17));
#19=PRODUCT_DEFINITION_CONTEXT('part definition',#26,'design');
#20=SHAPE_DEFINITION_REPRESENTATION(#21,#344);
#21=PRODUCT_DEFINITION_SHAPE('PRODUCT_VERSION_ID',
'PRODUCT_VERSION_DESCR',#22);
#22=PRODUCT_DEFINITION('PRODUCT_VERSION_ID','PRODUCT_VERSION_DESCR',#23,
#19);
#23=PRODUCT_DEFINITION_FORMATION_WITH_SPECIFIED_SOURCE(
'PRODUCT_VERSION_ID','PRODUCT_VERSION_DESCR',#28,.MADE.);
#24=PRODUCT_RELATED_PRODUCT_CATEGORY('part','part',(#28));
#25=APPLICATION_PROTOCOL_DEFINITION('Draft International Standard',
'automotive_design',1994,#26);
#26=APPLICATION_CONTEXT('automotive_Design');
#27=PRODUCT_CONTEXT('3D Mechanical Parts',#26,'mechanical');
#28=PRODUCT('','LAPP Wire spool DI=18mm DE=150mm W=80mm','',(#27));
#29=(
LENGTH_UNIT()
NAMED_UNIT(*)
SI_UNIT(.MILLI.,.METRE.)
);
#30=(
NAMED_UNIT(*)
PLANE_ANGLE_UNIT()
SI_UNIT($,.RADIAN.)
);
#31=(
NAMED_UNIT(*)
SI_UNIT($,.STERADIAN.)
SOLID_ANGLE_UNIT()
);
#32=UNCERTAINTY_MEASURE_WITH_UNIT(LENGTH_MEASURE(1.E-6),#29,
'DISTANCE_ACCURACY_VALUE',
'Maximum model space distance between geometric entities at asserted c
onnectivities');
#33=(
GEOMETRIC_REPRESENTATION_CONTEXT(3)
GLOBAL_UNCERTAINTY_ASSIGNED_CONTEXT((#32))
GLOBAL_UNIT_ASSIGNED_CONTEXT((#31,#30,#29))
REPRESENTATION_CONTEXT('ID1','3D')
);
#34=PLANE('',#207);
#35=PLANE('',#211);
#36=PLANE('',#219);
#37=PLANE('',#227);
#38=CYLINDRICAL_SURFACE('',#205,9.);
#39=CYLINDRICAL_SURFACE('',#215,75.);
#40=CYLINDRICAL_SURFACE('',#223,25.);
#41=CYLINDRICAL_SURFACE('',#231,75.);
#42=VERTEX_POINT('',#288);
#43=VERTEX_POINT('',#290);
#44=VERTEX_POINT('',#293);
#45=VERTEX_POINT('',#296);
#46=VERTEX_POINT('',#299);
#47=VERTEX_POINT('',#302);
#48=VERTEX_POINT('',#305);
#49=VERTEX_POINT('',#308);
#50=VERTEX_POINT('',#311);
#51=VERTEX_POINT('',#314);
#52=VERTEX_POINT('',#317);
#53=VERTEX_POINT('',#320);
#54=VERTEX_POINT('',#323);
#55=VERTEX_POINT('',#326);
#56=VERTEX_POINT('',#329);
#57=VERTEX_POINT('',#332);
#58=CIRCLE('',#203,9.5);
#59=CIRCLE('',#204,9.);
#60=CIRCLE('',#206,9.);
#61=CIRCLE('',#208,74.5);
#62=CIRCLE('',#210,9.5);
#63=CIRCLE('',#212,74.5);
#64=CIRCLE('',#214,75.);
#65=CIRCLE('',#216,75.);
#66=CIRCLE('',#218,74.5);
#67=CIRCLE('',#220,25.5);
#68=CIRCLE('',#222,25.);
#69=CIRCLE('',#224,25.);
#70=CIRCLE('',#226,25.5);
#71=CIRCLE('',#228,74.5);
#72=CIRCLE('',#230,75.);
#73=CIRCLE('',#232,75.);
#74=EDGE_CURVE('',#42,#42,#58,.T.);
#75=EDGE_CURVE('',#43,#43,#59,.T.);
#76=EDGE_CURVE('',#44,#44,#60,.T.);
#77=EDGE_CURVE('',#45,#45,#61,.T.);
#78=EDGE_CURVE('',#46,#46,#62,.T.);
#79=EDGE_CURVE('',#47,#47,#63,.T.);
#80=EDGE_CURVE('',#48,#48,#64,.T.);
#81=EDGE_CURVE('',#49,#49,#65,.T.);
#82=EDGE_CURVE('',#50,#50,#66,.T.);
#83=EDGE_CURVE('',#51,#51,#67,.T.);
#84=EDGE_CURVE('',#52,#52,#68,.T.);
#85=EDGE_CURVE('',#53,#53,#69,.T.);
#86=EDGE_CURVE('',#54,#54,#70,.T.);
#87=EDGE_CURVE('',#55,#55,#71,.T.);
#88=EDGE_CURVE('',#56,#56,#72,.T.);
#89=EDGE_CURVE('',#57,#57,#73,.T.);
#90=ORIENTED_EDGE('',*,*,#74,.T.);
#91=ORIENTED_EDGE('',*,*,#75,.T.);
#92=ORIENTED_EDGE('',*,*,#76,.F.);
#93=ORIENTED_EDGE('',*,*,#75,.F.);
#94=ORIENTED_EDGE('',*,*,#77,.F.);
#95=ORIENTED_EDGE('',*,*,#74,.F.);
#96=ORIENTED_EDGE('',*,*,#78,.T.);
#97=ORIENTED_EDGE('',*,*,#76,.T.);
#98=ORIENTED_EDGE('',*,*,#79,.F.);
#99=ORIENTED_EDGE('',*,*,#78,.F.);
#100=ORIENTED_EDGE('',*,*,#79,.T.);
#101=ORIENTED_EDGE('',*,*,#80,.T.);
#102=ORIENTED_EDGE('',*,*,#81,.F.);
#103=ORIENTED_EDGE('',*,*,#80,.F.);
#104=ORIENTED_EDGE('',*,*,#82,.T.);
#105=ORIENTED_EDGE('',*,*,#81,.T.);
#106=ORIENTED_EDGE('',*,*,#83,.F.);
#107=ORIENTED_EDGE('',*,*,#82,.F.);
#108=ORIENTED_EDGE('',*,*,#83,.T.);
#109=ORIENTED_EDGE('',*,*,#84,.T.);
#110=ORIENTED_EDGE('',*,*,#85,.F.);
#111=ORIENTED_EDGE('',*,*,#84,.F.);
#112=ORIENTED_EDGE('',*,*,#86,.T.);
#113=ORIENTED_EDGE('',*,*,#85,.T.);
#114=ORIENTED_EDGE('',*,*,#87,.F.);
#115=ORIENTED_EDGE('',*,*,#86,.F.);
#116=ORIENTED_EDGE('',*,*,#87,.T.);
#117=ORIENTED_EDGE('',*,*,#88,.T.);
#118=ORIENTED_EDGE('',*,*,#89,.F.);
#119=ORIENTED_EDGE('',*,*,#88,.F.);
#120=ORIENTED_EDGE('',*,*,#77,.T.);
#121=ORIENTED_EDGE('',*,*,#89,.T.);
#122=EDGE_LOOP('',(#90));
#123=EDGE_LOOP('',(#91));
#124=EDGE_LOOP('',(#92));
#125=EDGE_LOOP('',(#93));
#126=EDGE_LOOP('',(#94));
#127=EDGE_LOOP('',(#95));
#128=EDGE_LOOP('',(#96));
#129=EDGE_LOOP('',(#97));
#130=EDGE_LOOP('',(#98));
#131=EDGE_LOOP('',(#99));
#132=EDGE_LOOP('',(#100));
#133=EDGE_LOOP('',(#101));
#134=EDGE_LOOP('',(#102));
#135=EDGE_LOOP('',(#103));
#136=EDGE_LOOP('',(#104));
#137=EDGE_LOOP('',(#105));
#138=EDGE_LOOP('',(#106));
#139=EDGE_LOOP('',(#107));
#140=EDGE_LOOP('',(#108));
#141=EDGE_LOOP('',(#109));
#142=EDGE_LOOP('',(#110));
#143=EDGE_LOOP('',(#111));
#144=EDGE_LOOP('',(#112));
#145=EDGE_LOOP('',(#113));
#146=EDGE_LOOP('',(#114));
#147=EDGE_LOOP('',(#115));
#148=EDGE_LOOP('',(#116));
#149=EDGE_LOOP('',(#117));
#150=EDGE_LOOP('',(#118));
#151=EDGE_LOOP('',(#119));
#152=EDGE_LOOP('',(#120));
#153=EDGE_LOOP('',(#121));
#154=FACE_BOUND('',#122,.T.);
#155=FACE_BOUND('',#123,.T.);
#156=FACE_BOUND('',#124,.T.);
#157=FACE_BOUND('',#125,.T.);
#158=FACE_BOUND('',#126,.T.);
#159=FACE_BOUND('',#127,.T.);
#160=FACE_BOUND('',#128,.T.);
#161=FACE_BOUND('',#129,.T.);
#162=FACE_BOUND('',#130,.T.);
#163=FACE_BOUND('',#131,.T.);
#164=FACE_BOUND('',#132,.T.);
#165=FACE_BOUND('',#133,.T.);
#166=FACE_BOUND('',#134,.T.);
#167=FACE_BOUND('',#135,.T.);
#168=FACE_BOUND('',#136,.T.);
#169=FACE_BOUND('',#137,.T.);
#170=FACE_BOUND('',#138,.T.);
#171=FACE_BOUND('',#139,.T.);
#172=FACE_BOUND('',#140,.T.);
#173=FACE_BOUND('',#141,.T.);
#174=FACE_BOUND('',#142,.T.);
#175=FACE_BOUND('',#143,.T.);
#176=FACE_BOUND('',#144,.T.);
#177=FACE_BOUND('',#145,.T.);
#178=FACE_BOUND('',#146,.T.);
#179=FACE_BOUND('',#147,.T.);
#180=FACE_BOUND('',#148,.T.);
#181=FACE_BOUND('',#149,.T.);
#182=FACE_BOUND('',#150,.T.);
#183=FACE_BOUND('',#151,.T.);
#184=FACE_BOUND('',#152,.T.);
#185=FACE_BOUND('',#153,.T.);
#186=ADVANCED_FACE('',(#154,#155),#334,.T.);
#187=ADVANCED_FACE('',(#156,#157),#38,.F.);
#188=ADVANCED_FACE('',(#158,#159),#34,.T.);
#189=ADVANCED_FACE('',(#160,#161),#335,.T.);
#190=ADVANCED_FACE('',(#162,#163),#35,.T.);
#191=ADVANCED_FACE('',(#164,#165),#336,.T.);
#192=ADVANCED_FACE('',(#166,#167),#39,.T.);
#193=ADVANCED_FACE('',(#168,#169),#337,.T.);
#194=ADVANCED_FACE('',(#170,#171),#36,.F.);
#195=ADVANCED_FACE('',(#172,#173),#338,.F.);
#196=ADVANCED_FACE('',(#174,#175),#40,.T.);
#197=ADVANCED_FACE('',(#176,#177),#339,.F.);
#198=ADVANCED_FACE('',(#178,#179),#37,.F.);
#199=ADVANCED_FACE('',(#180,#181),#340,.T.);
#200=ADVANCED_FACE('',(#182,#183),#41,.T.);
#201=ADVANCED_FACE('',(#184,#185),#341,.T.);
#202=AXIS2_PLACEMENT_3D('',#286,#234,$);
#203=AXIS2_PLACEMENT_3D('',#287,#235,#236);
#204=AXIS2_PLACEMENT_3D('',#289,#237,#238);
#205=AXIS2_PLACEMENT_3D('',#291,#239,#240);
#206=AXIS2_PLACEMENT_3D('',#292,#241,#242);
#207=AXIS2_PLACEMENT_3D('',#294,#243,$);
#208=AXIS2_PLACEMENT_3D('',#295,#244,#245);
#209=AXIS2_PLACEMENT_3D('',#297,#246,$);
#210=AXIS2_PLACEMENT_3D('',#298,#247,#248);
#211=AXIS2_PLACEMENT_3D('',#300,#249,$);
#212=AXIS2_PLACEMENT_3D('',#301,#250,#251);
#213=AXIS2_PLACEMENT_3D('',#303,#252,$);
#214=AXIS2_PLACEMENT_3D('',#304,#253,#254);
#215=AXIS2_PLACEMENT_3D('',#306,#255,#256);
#216=AXIS2_PLACEMENT_3D('',#307,#257,#258);
#217=AXIS2_PLACEMENT_3D('',#309,#259,$);
#218=AXIS2_PLACEMENT_3D('',#310,#260,#261);
#219=AXIS2_PLACEMENT_3D('',#312,#262,$);
#220=AXIS2_PLACEMENT_3D('',#313,#263,#264);
#221=AXIS2_PLACEMENT_3D('',#315,#265,$);
#222=AXIS2_PLACEMENT_3D('',#316,#266,#267);
#223=AXIS2_PLACEMENT_3D('',#318,#268,#269);
#224=AXIS2_PLACEMENT_3D('',#319,#270,#271);
#225=AXIS2_PLACEMENT_3D('',#321,#272,$);
#226=AXIS2_PLACEMENT_3D('',#322,#273,#274);
#227=AXIS2_PLACEMENT_3D('',#324,#275,$);
#228=AXIS2_PLACEMENT_3D('',#325,#276,#277);
#229=AXIS2_PLACEMENT_3D('',#327,#278,$);
#230=AXIS2_PLACEMENT_3D('',#328,#279,#280);
#231=AXIS2_PLACEMENT_3D('',#330,#281,#282);
#232=AXIS2_PLACEMENT_3D('',#331,#283,#284);
#233=AXIS2_PLACEMENT_3D('',#333,#285,$);
#234=DIRECTION('',(0.,0.,1.));
#235=DIRECTION('',(0.,0.,1.));
#236=DIRECTION('',(-9.5,1.16341445918999E-15,0.));
#237=DIRECTION('',(0.,0.,-1.));
#238=DIRECTION('',(-9.,1.10218211923262E-15,0.));
#239=DIRECTION('',(0.,0.,1.));
#240=DIRECTION('',(9.,0.,0.));
#241=DIRECTION('',(0.,0.,1.));
#242=DIRECTION('',(9.,1.10218211923262E-15,0.));
#243=DIRECTION('',(0.,0.,1.));
#244=DIRECTION('',(0.,0.,-1.));
#245=DIRECTION('',(-74.5,-9.12361865364778E-15,0.));
#246=DIRECTION('',(0.,0.,-1.));
#247=DIRECTION('',(0.,0.,-1.));
#248=DIRECTION('',(9.5,1.16341445918999E-15,0.));
#249=DIRECTION('',(0.,0.,-1.));
#250=DIRECTION('',(0.,0.,1.));
#251=DIRECTION('',(74.5,-9.12361865364778E-15,0.));
#252=DIRECTION('',(0.,0.,1.));
#253=DIRECTION('',(0.,0.,-1.));
#254=DIRECTION('',(75.,-9.18485099360515E-15,0.));
#255=DIRECTION('',(0.,0.,-1.));
#256=DIRECTION('',(-75.,0.,0.));
#257=DIRECTION('',(0.,0.,1.));
#258=DIRECTION('',(75.,9.18485099360515E-15,0.));
#259=DIRECTION('',(0.,0.,-1.));
#260=DIRECTION('',(0.,0.,-1.));
#261=DIRECTION('',(74.5,9.12361865364778E-15,0.));
#262=DIRECTION('',(0.,0.,-1.));
#263=DIRECTION('',(0.,0.,1.));
#264=DIRECTION('',(-25.5,3.12284933782575E-15,0.));
#265=DIRECTION('',(0.,0.,1.));
#266=DIRECTION('',(0.,0.,-1.));
#267=DIRECTION('',(-25.,3.06161699786838E-15,0.));
#268=DIRECTION('',(0.,0.,1.));
#269=DIRECTION('',(25.,0.,0.));
#270=DIRECTION('',(0.,0.,1.));
#271=DIRECTION('',(-25.,-3.06161699786838E-15,0.));
#272=DIRECTION('',(0.,0.,-1.));
#273=DIRECTION('',(0.,0.,-1.));
#274=DIRECTION('',(-25.5,-3.12284933782575E-15,0.));
#275=DIRECTION('',(0.,0.,1.));
#276=DIRECTION('',(0.,0.,1.));
#277=DIRECTION('',(-74.5,9.12361865364778E-15,0.));
#278=DIRECTION('',(0.,0.,1.));
#279=DIRECTION('',(0.,0.,-1.));
#280=DIRECTION('',(-75.,9.18485099360515E-15,0.));
#281=DIRECTION('',(0.,0.,1.));
#282=DIRECTION('',(75.,0.,0.));
#283=DIRECTION('',(0.,0.,1.));
#284=DIRECTION('',(-75.,-9.18485099360515E-15,0.));
#285=DIRECTION('',(0.,0.,-1.));
#286=CARTESIAN_POINT('',(0.,0.,39.5));
#287=CARTESIAN_POINT('',(0.,0.,40.));
#288=CARTESIAN_POINT('',(9.5,0.,40.));
#289=CARTESIAN_POINT('',(0.,0.,39.5));
#290=CARTESIAN_POINT('',(9.,-2.20436423846524E-15,39.5));
#291=CARTESIAN_POINT('',(0.,0.,-37.5));
#292=CARTESIAN_POINT('',(0.,0.,-39.5));
#293=CARTESIAN_POINT('',(-9.,-2.20436423846524E-15,-39.5));
#294=CARTESIAN_POINT('',(0.,0.,40.));
#295=CARTESIAN_POINT('',(0.,0.,40.));
#296=CARTESIAN_POINT('',(74.5,0.,40.));
#297=CARTESIAN_POINT('',(0.,0.,-39.5));
#298=CARTESIAN_POINT('',(0.,0.,-40.));
#299=CARTESIAN_POINT('',(-9.5,0.,-40.));
#300=CARTESIAN_POINT('',(0.,0.,-40.));
#301=CARTESIAN_POINT('',(0.,0.,-40.));
#302=CARTESIAN_POINT('',(-74.5,0.,-40.));
#303=CARTESIAN_POINT('',(0.,0.,-39.5));
#304=CARTESIAN_POINT('',(0.,0.,-39.5));
#305=CARTESIAN_POINT('',(-75.,1.83697019872103E-14,-39.5));
#306=CARTESIAN_POINT('',(0.,0.,-37.5));
#307=CARTESIAN_POINT('',(0.,0.,-38.));
#308=CARTESIAN_POINT('',(-75.,-1.83697019872103E-14,-38.));
#309=CARTESIAN_POINT('',(0.,0.,-38.));
#310=CARTESIAN_POINT('',(0.,0.,-37.5));
#311=CARTESIAN_POINT('',(-74.5,0.,-37.5));
#312=CARTESIAN_POINT('',(0.,0.,-37.5));
#313=CARTESIAN_POINT('',(0.,0.,-37.5));
#314=CARTESIAN_POINT('',(25.5,0.,-37.5));
#315=CARTESIAN_POINT('',(0.,0.,-37.));
#316=CARTESIAN_POINT('',(0.,0.,-37.));
#317=CARTESIAN_POINT('',(25.,-6.12323399573677E-15,-37.));
#318=CARTESIAN_POINT('',(0.,0.,-37.5));
#319=CARTESIAN_POINT('',(0.,0.,37.));
#320=CARTESIAN_POINT('',(25.,6.12323399573677E-15,37.));
#321=CARTESIAN_POINT('',(0.,0.,37.));
#322=CARTESIAN_POINT('',(0.,0.,37.5));
#323=CARTESIAN_POINT('',(25.5,0.,37.5));
#324=CARTESIAN_POINT('',(0.,0.,37.5));
#325=CARTESIAN_POINT('',(0.,0.,37.5));
#326=CARTESIAN_POINT('',(74.5,0.,37.5));
#327=CARTESIAN_POINT('',(0.,0.,38.));
#328=CARTESIAN_POINT('',(0.,0.,38.));
#329=CARTESIAN_POINT('',(75.,-1.83697019872103E-14,38.));
#330=CARTESIAN_POINT('',(0.,0.,37.5));
#331=CARTESIAN_POINT('',(0.,0.,39.5));
#332=CARTESIAN_POINT('',(75.,1.83697019872103E-14,39.5));
#333=CARTESIAN_POINT('',(0.,0.,39.5));
#334=TOROIDAL_SURFACE('',#202,9.5,0.5);
#335=TOROIDAL_SURFACE('',#209,9.5,0.5);
#336=TOROIDAL_SURFACE('',#213,74.5,0.5);
#337=TOROIDAL_SURFACE('',#217,74.5,0.5);
#338=TOROIDAL_SURFACE('',#221,25.5,0.5);
#339=TOROIDAL_SURFACE('',#225,25.5,0.5);
#340=TOROIDAL_SURFACE('',#229,74.5,0.5);
#341=TOROIDAL_SURFACE('',#233,74.5,0.5);
#342=CLOSED_SHELL('',(#186,#187,#188,#189,#190,#191,#192,#193,#194,#195,
#196,#197,#198,#199,#200,#201));
#343=MANIFOLD_SOLID_BREP('',#342);
#344=ADVANCED_BREP_SHAPE_REPRESENTATION('',(#343),#33);
ENDSEC;
END-ISO-10303-21;
