ISO-10303-21;
HEADER;
/* Generated by software containing ST-Developer
 * from STEP Tools, Inc. (www.steptools.com) 
 */

FILE_DESCRIPTION(
/* description */ ('Alibre Inc.'),
/* implementation_level */ '2;1');

FILE_NAME(
/* name */ 'export-9E3E0E55-9F00-4379-BB31-6942B2F7C51B',
/* time_stamp */ '2021-01-04T21:16:12+01:00',
/* author */ (''),
/* organization */ (''),
/* preprocessor_version */ 'ST-DEVELOPER v17',
/* originating_system */ 'Alibre',
/* authorisation */ '');

FILE_SCHEMA (('AUTOMOTIVE_DESIGN'));
ENDSEC;

DATA;
#10=STYLED_ITEM('NAME_0',(#36),#540);
#11=STYLED_ITEM('NAME_0',(#37),#271);
#12=STYLED_ITEM('NAME_0',(#37),#272);
#13=STYLED_ITEM('NAME_0',(#37),#273);
#14=STYLED_ITEM('NAME_0',(#37),#274);
#15=STYLED_ITEM('NAME_0',(#37),#275);
#16=STYLED_ITEM('NAME_0',(#37),#276);
#17=STYLED_ITEM('NAME_0',(#37),#277);
#18=STYLED_ITEM('NAME_0',(#37),#278);
#19=STYLED_ITEM('NAME_0',(#37),#279);
#20=STYLED_ITEM('NAME_0',(#37),#280);
#21=STYLED_ITEM('NAME_0',(#37),#281);
#22=STYLED_ITEM('NAME_0',(#37),#282);
#23=MECHANICAL_DESIGN_GEOMETRIC_PRESENTATION_REPRESENTATION('NAME_0',(#10,
#11,#12,#13,#14,#15,#16,#17,#18,#19,#20,#21,#22),#52);
#24=COLOUR_RGB('',0.882352941176471,0.882352941176471,0.882352941176471);
#25=COLOUR_RGB('',0.729411764705882,0.768627450980392,0.784313725490196);
#26=FILL_AREA_STYLE_COLOUR('NAME_0',#24);
#27=FILL_AREA_STYLE_COLOUR('NAME_0',#25);
#28=FILL_AREA_STYLE('NAME_0',(#26));
#29=FILL_AREA_STYLE('NAME_0',(#27));
#30=SURFACE_STYLE_FILL_AREA(#28);
#31=SURFACE_STYLE_FILL_AREA(#29);
#32=SURFACE_SIDE_STYLE('NAME_0',(#30));
#33=SURFACE_SIDE_STYLE('NAME_0',(#31));
#34=SURFACE_STYLE_USAGE(.POSITIVE.,#32);
#35=SURFACE_STYLE_USAGE(.POSITIVE.,#33);
#36=PRESENTATION_STYLE_ASSIGNMENT((#34));
#37=PRESENTATION_STYLE_ASSIGNMENT((#35));
#38=PRODUCT_DEFINITION_CONTEXT('part definition',#45,'design');
#39=SHAPE_DEFINITION_REPRESENTATION(#40,#541);
#40=PRODUCT_DEFINITION_SHAPE('PRODUCT_VERSION_ID',
'PRODUCT_VERSION_DESCR',#41);
#41=PRODUCT_DEFINITION('PRODUCT_VERSION_ID','PRODUCT_VERSION_DESCR',#42,
#38);
#42=PRODUCT_DEFINITION_FORMATION_WITH_SPECIFIED_SOURCE(
'PRODUCT_VERSION_ID','PRODUCT_VERSION_DESCR',#47,.MADE.);
#43=PRODUCT_RELATED_PRODUCT_CATEGORY('part','part',(#47));
#44=APPLICATION_PROTOCOL_DEFINITION('Draft International Standard',
'automotive_design',1994,#45);
#45=APPLICATION_CONTEXT('automotive_Design');
#46=PRODUCT_CONTEXT('3D Mechanical Parts',#45,'mechanical');
#47=PRODUCT('_096006D36','3493 ITEM T-nut Double M6 L=36 P=26.4mm','',(#46));
#48=(
LENGTH_UNIT()
NAMED_UNIT(*)
SI_UNIT(.MILLI.,.METRE.)
);
#49=(
NAMED_UNIT(*)
PLANE_ANGLE_UNIT()
SI_UNIT($,.RADIAN.)
);
#50=(
NAMED_UNIT(*)
SI_UNIT($,.STERADIAN.)
SOLID_ANGLE_UNIT()
);
#51=UNCERTAINTY_MEASURE_WITH_UNIT(LENGTH_MEASURE(1.E-6),#48,
'DISTANCE_ACCURACY_VALUE',
'Maximum model space distance between geometric entities at asserted c
onnectivities');
#52=(
GEOMETRIC_REPRESENTATION_CONTEXT(3)
GLOBAL_UNCERTAINTY_ASSIGNED_CONTEXT((#51))
GLOBAL_UNIT_ASSIGNED_CONTEXT((#50,#49,#48))
REPRESENTATION_CONTEXT('ID1','3D')
);
#53=PLANE('',#288);
#54=PLANE('',#293);
#55=PLANE('',#300);
#56=PLANE('',#302);
#57=PLANE('',#304);
#58=PLANE('',#308);
#59=B_SPLINE_CURVE_WITH_KNOTS('',3,(#383,#384,#385,#386,#387,#388,#389,
#390,#391,#392,#393,#394,#395,#396,#397,#398,#399,#400,#401,#402,#403,#404),
 .UNSPECIFIED.,.F.,.U.,(4,2,2,2,2,2,2,2,2,2,4),(1.71115735449782,2.28154313933043,
2.81691044240389,3.35227774547736,3.88764504855083,4.4230123516243,4.95837965469777,
5.49374695777123,6.0291142608447,6.56448156391817,7.13486734875078),
 .UNSPECIFIED.);
#60=B_SPLINE_CURVE_WITH_KNOTS('',3,(#408,#409,#410,#411,#412,#413,#414,
#415,#416,#417,#418,#419,#420,#421,#422,#423,#424,#425,#426,#427,#428,#429),
 .UNSPECIFIED.,.F.,.U.,(4,2,2,2,2,2,2,2,2,2,4),(1.71115735449784,2.28154313933045,
2.81691044240393,3.3522777454774,3.88764504855088,4.42301235162435,4.95837965469783,
5.4937469577713,6.02911426084478,6.56448156391825,7.13486734875087),
 .UNSPECIFIED.);
#61=B_SPLINE_CURVE_WITH_KNOTS('',3,(#463,#464,#465,#466,#467,#468,#469,
#470,#471,#472,#473,#474,#475,#476,#477,#478,#479,#480,#481,#482,#483,#484),
 .UNSPECIFIED.,.F.,.U.,(4,2,2,2,2,2,2,2,2,2,4),(1.71115735449784,2.28154313933045,
2.81691044240393,3.3522777454774,3.88764504855087,4.42301235162435,4.95837965469782,
5.4937469577713,6.02911426084477,6.56448156391825,7.13486734875086),
 .UNSPECIFIED.);
#62=B_SPLINE_CURVE_WITH_KNOTS('',3,(#506,#507,#508,#509,#510,#511,#512,
#513,#514,#515,#516,#517,#518,#519,#520,#521,#522,#523,#524,#525,#526,#527),
 .UNSPECIFIED.,.F.,.U.,(4,2,2,2,2,2,2,2,2,2,4),(1.71115735449782,2.28154313933043,
2.81691044240389,3.35227774547736,3.88764504855083,4.4230123516243,4.95837965469777,
5.49374695777123,6.0291142608447,6.56448156391817,7.13486734875077),
 .UNSPECIFIED.);
#63=CIRCLE('',#284,2.4585);
#64=CIRCLE('',#285,2.4585);
#65=CIRCLE('',#286,2.4585);
#66=CIRCLE('',#287,2.4585);
#67=CIRCLE('',#289,0.5);
#68=CIRCLE('',#290,15.);
#69=CIRCLE('',#291,15.);
#70=CIRCLE('',#292,0.5);
#71=CIRCLE('',#294,0.5);
#72=CIRCLE('',#295,15.);
#73=CIRCLE('',#296,15.);
#74=CIRCLE('',#297,0.5);
#75=CIRCLE('',#303,2.4585);
#76=CIRCLE('',#305,2.4585);
#77=CIRCLE('',#306,2.4585);
#78=CIRCLE('',#309,2.4585);
#79=VERTEX_POINT('',#379);
#80=VERTEX_POINT('',#380);
#81=VERTEX_POINT('',#382);
#82=VERTEX_POINT('',#405);
#83=VERTEX_POINT('',#407);
#84=VERTEX_POINT('',#430);
#85=VERTEX_POINT('',#435);
#86=VERTEX_POINT('',#436);
#87=VERTEX_POINT('',#438);
#88=VERTEX_POINT('',#440);
#89=VERTEX_POINT('',#442);
#90=VERTEX_POINT('',#444);
#91=VERTEX_POINT('',#448);
#92=VERTEX_POINT('',#449);
#93=VERTEX_POINT('',#451);
#94=VERTEX_POINT('',#453);
#95=VERTEX_POINT('',#455);
#96=VERTEX_POINT('',#457);
#97=VERTEX_POINT('',#485);
#98=VERTEX_POINT('',#486);
#99=VERTEX_POINT('',#497);
#100=VERTEX_POINT('',#501);
#101=VERTEX_POINT('',#502);
#102=VERTEX_POINT('',#530);
#103=VECTOR('',#313,1.);
#104=VECTOR('',#323,1.);
#105=VECTOR('',#328,1.);
#106=VECTOR('',#334,1.);
#107=VECTOR('',#339,1.);
#108=VECTOR('',#346,1.);
#109=VECTOR('',#347,1.);
#110=VECTOR('',#350,1.);
#111=VECTOR('',#351,1.);
#112=VECTOR('',#352,1.);
#113=VECTOR('',#354,1.);
#114=VECTOR('',#357,1.);
#115=VECTOR('',#358,1.);
#116=VECTOR('',#362,1.);
#117=VECTOR('',#368,1.);
#118=VECTOR('',#376,1.);
#119=LINE('',#378,#103);
#120=LINE('',#434,#104);
#121=LINE('',#441,#105);
#122=LINE('',#447,#106);
#123=LINE('',#454,#107);
#124=LINE('',#460,#108);
#125=LINE('',#461,#109);
#126=LINE('',#487,#110);
#127=LINE('',#488,#111);
#128=LINE('',#489,#112);
#129=LINE('',#491,#113);
#130=LINE('',#493,#114);
#131=LINE('',#494,#115);
#132=LINE('',#498,#116);
#133=LINE('',#504,#117);
#134=LINE('',#532,#118);
#135=EDGE_CURVE('',#79,#80,#119,.T.);
#136=EDGE_CURVE('',#81,#79,#63,.F.);
#137=EDGE_CURVE('',#81,#82,#59,.F.);
#138=EDGE_CURVE('',#83,#82,#64,.F.);
#139=EDGE_CURVE('',#83,#84,#60,.F.);
#140=EDGE_CURVE('',#79,#84,#65,.F.);
#141=EDGE_CURVE('',#80,#80,#66,.T.);
#142=EDGE_CURVE('',#85,#86,#120,.F.);
#143=EDGE_CURVE('',#86,#87,#67,.T.);
#144=EDGE_CURVE('',#87,#88,#68,.T.);
#145=EDGE_CURVE('',#88,#89,#121,.F.);
#146=EDGE_CURVE('',#89,#90,#69,.T.);
#147=EDGE_CURVE('',#90,#85,#70,.T.);
#148=EDGE_CURVE('',#91,#92,#122,.F.);
#149=EDGE_CURVE('',#93,#91,#71,.T.);
#150=EDGE_CURVE('',#94,#93,#72,.T.);
#151=EDGE_CURVE('',#95,#94,#123,.F.);
#152=EDGE_CURVE('',#96,#95,#73,.T.);
#153=EDGE_CURVE('',#92,#96,#74,.T.);
#154=EDGE_CURVE('',#85,#91,#124,.F.);
#155=EDGE_CURVE('',#90,#93,#125,.F.);
#156=EDGE_CURVE('',#97,#98,#61,.T.);
#157=EDGE_CURVE('',#97,#94,#126,.F.);
#158=EDGE_CURVE('',#89,#84,#127,.F.);
#159=EDGE_CURVE('',#83,#98,#128,.F.);
#160=EDGE_CURVE('',#88,#81,#129,.F.);
#161=EDGE_CURVE('',#87,#96,#130,.F.);
#162=EDGE_CURVE('',#86,#92,#131,.F.);
#163=EDGE_CURVE('',#97,#99,#75,.T.);
#164=EDGE_CURVE('',#99,#95,#132,.F.);
#165=EDGE_CURVE('',#100,#101,#76,.T.);
#166=EDGE_CURVE('',#101,#98,#77,.T.);
#167=EDGE_CURVE('',#82,#100,#133,.F.);
#168=EDGE_CURVE('',#100,#99,#62,.T.);
#169=EDGE_CURVE('',#102,#102,#78,.F.);
#170=EDGE_CURVE('',#101,#102,#134,.T.);
#171=ORIENTED_EDGE('',*,*,#135,.F.);
#172=ORIENTED_EDGE('',*,*,#136,.F.);
#173=ORIENTED_EDGE('',*,*,#137,.T.);
#174=ORIENTED_EDGE('',*,*,#138,.F.);
#175=ORIENTED_EDGE('',*,*,#139,.T.);
#176=ORIENTED_EDGE('',*,*,#140,.F.);
#177=ORIENTED_EDGE('',*,*,#135,.T.);
#178=ORIENTED_EDGE('',*,*,#141,.T.);
#179=ORIENTED_EDGE('',*,*,#142,.T.);
#180=ORIENTED_EDGE('',*,*,#143,.T.);
#181=ORIENTED_EDGE('',*,*,#144,.T.);
#182=ORIENTED_EDGE('',*,*,#145,.T.);
#183=ORIENTED_EDGE('',*,*,#146,.T.);
#184=ORIENTED_EDGE('',*,*,#147,.T.);
#185=ORIENTED_EDGE('',*,*,#148,.F.);
#186=ORIENTED_EDGE('',*,*,#149,.F.);
#187=ORIENTED_EDGE('',*,*,#150,.F.);
#188=ORIENTED_EDGE('',*,*,#151,.F.);
#189=ORIENTED_EDGE('',*,*,#152,.F.);
#190=ORIENTED_EDGE('',*,*,#153,.F.);
#191=ORIENTED_EDGE('',*,*,#149,.T.);
#192=ORIENTED_EDGE('',*,*,#154,.F.);
#193=ORIENTED_EDGE('',*,*,#147,.F.);
#194=ORIENTED_EDGE('',*,*,#155,.T.);
#195=ORIENTED_EDGE('',*,*,#156,.F.);
#196=ORIENTED_EDGE('',*,*,#157,.T.);
#197=ORIENTED_EDGE('',*,*,#150,.T.);
#198=ORIENTED_EDGE('',*,*,#155,.F.);
#199=ORIENTED_EDGE('',*,*,#146,.F.);
#200=ORIENTED_EDGE('',*,*,#158,.T.);
#201=ORIENTED_EDGE('',*,*,#139,.F.);
#202=ORIENTED_EDGE('',*,*,#159,.T.);
#203=ORIENTED_EDGE('',*,*,#136,.T.);
#204=ORIENTED_EDGE('',*,*,#140,.T.);
#205=ORIENTED_EDGE('',*,*,#158,.F.);
#206=ORIENTED_EDGE('',*,*,#145,.F.);
#207=ORIENTED_EDGE('',*,*,#160,.T.);
#208=ORIENTED_EDGE('',*,*,#153,.T.);
#209=ORIENTED_EDGE('',*,*,#161,.F.);
#210=ORIENTED_EDGE('',*,*,#143,.F.);
#211=ORIENTED_EDGE('',*,*,#162,.T.);
#212=ORIENTED_EDGE('',*,*,#163,.T.);
#213=ORIENTED_EDGE('',*,*,#164,.T.);
#214=ORIENTED_EDGE('',*,*,#151,.T.);
#215=ORIENTED_EDGE('',*,*,#157,.F.);
#216=ORIENTED_EDGE('',*,*,#165,.T.);
#217=ORIENTED_EDGE('',*,*,#166,.T.);
#218=ORIENTED_EDGE('',*,*,#159,.F.);
#219=ORIENTED_EDGE('',*,*,#138,.T.);
#220=ORIENTED_EDGE('',*,*,#167,.T.);
#221=ORIENTED_EDGE('',*,*,#168,.F.);
#222=ORIENTED_EDGE('',*,*,#167,.F.);
#223=ORIENTED_EDGE('',*,*,#137,.F.);
#224=ORIENTED_EDGE('',*,*,#160,.F.);
#225=ORIENTED_EDGE('',*,*,#144,.F.);
#226=ORIENTED_EDGE('',*,*,#161,.T.);
#227=ORIENTED_EDGE('',*,*,#152,.T.);
#228=ORIENTED_EDGE('',*,*,#164,.F.);
#229=ORIENTED_EDGE('',*,*,#169,.F.);
#230=ORIENTED_EDGE('',*,*,#141,.F.);
#231=ORIENTED_EDGE('',*,*,#148,.T.);
#232=ORIENTED_EDGE('',*,*,#162,.F.);
#233=ORIENTED_EDGE('',*,*,#142,.F.);
#234=ORIENTED_EDGE('',*,*,#154,.T.);
#235=ORIENTED_EDGE('',*,*,#170,.F.);
#236=ORIENTED_EDGE('',*,*,#165,.F.);
#237=ORIENTED_EDGE('',*,*,#168,.T.);
#238=ORIENTED_EDGE('',*,*,#163,.F.);
#239=ORIENTED_EDGE('',*,*,#156,.T.);
#240=ORIENTED_EDGE('',*,*,#166,.F.);
#241=ORIENTED_EDGE('',*,*,#170,.T.);
#242=ORIENTED_EDGE('',*,*,#169,.T.);
#243=EDGE_LOOP('',(#171,#172,#173,#174,#175,#176,#177,#178));
#244=EDGE_LOOP('',(#179,#180,#181,#182,#183,#184));
#245=EDGE_LOOP('',(#185,#186,#187,#188,#189,#190));
#246=EDGE_LOOP('',(#191,#192,#193,#194));
#247=EDGE_LOOP('',(#195,#196,#197,#198,#199,#200,#201,#202));
#248=EDGE_LOOP('',(#203,#204,#205,#206,#207));
#249=EDGE_LOOP('',(#208,#209,#210,#211));
#250=EDGE_LOOP('',(#212,#213,#214,#215));
#251=EDGE_LOOP('',(#216,#217,#218,#219,#220));
#252=EDGE_LOOP('',(#221,#222,#223,#224,#225,#226,#227,#228));
#253=EDGE_LOOP('',(#229));
#254=EDGE_LOOP('',(#230));
#255=EDGE_LOOP('',(#231,#232,#233,#234));
#256=EDGE_LOOP('',(#235,#236,#237,#238,#239,#240,#241,#242));
#257=FACE_BOUND('',#243,.T.);
#258=FACE_BOUND('',#244,.T.);
#259=FACE_BOUND('',#245,.T.);
#260=FACE_BOUND('',#246,.T.);
#261=FACE_BOUND('',#247,.T.);
#262=FACE_BOUND('',#248,.T.);
#263=FACE_BOUND('',#249,.T.);
#264=FACE_BOUND('',#250,.T.);
#265=FACE_BOUND('',#251,.T.);
#266=FACE_BOUND('',#252,.T.);
#267=FACE_BOUND('',#253,.T.);
#268=FACE_BOUND('',#254,.T.);
#269=FACE_BOUND('',#255,.T.);
#270=FACE_BOUND('',#256,.T.);
#271=ADVANCED_FACE('',(#257),#533,.F.);
#272=ADVANCED_FACE('',(#258),#53,.T.);
#273=ADVANCED_FACE('',(#259),#54,.F.);
#274=ADVANCED_FACE('',(#260),#534,.T.);
#275=ADVANCED_FACE('',(#261),#535,.T.);
#276=ADVANCED_FACE('',(#262),#55,.F.);
#277=ADVANCED_FACE('',(#263),#536,.T.);
#278=ADVANCED_FACE('',(#264),#56,.F.);
#279=ADVANCED_FACE('',(#265),#57,.F.);
#280=ADVANCED_FACE('',(#266),#537,.T.);
#281=ADVANCED_FACE('',(#267,#268,#269),#58,.F.);
#282=ADVANCED_FACE('',(#270),#538,.F.);
#283=AXIS2_PLACEMENT_3D('',#377,#311,#312);
#284=AXIS2_PLACEMENT_3D('',#381,#314,#315);
#285=AXIS2_PLACEMENT_3D('',#406,#316,#317);
#286=AXIS2_PLACEMENT_3D('',#431,#318,#319);
#287=AXIS2_PLACEMENT_3D('',#432,#320,#321);
#288=AXIS2_PLACEMENT_3D('',#433,#322,$);
#289=AXIS2_PLACEMENT_3D('',#437,#324,#325);
#290=AXIS2_PLACEMENT_3D('',#439,#326,#327);
#291=AXIS2_PLACEMENT_3D('',#443,#329,#330);
#292=AXIS2_PLACEMENT_3D('',#445,#331,#332);
#293=AXIS2_PLACEMENT_3D('',#446,#333,$);
#294=AXIS2_PLACEMENT_3D('',#450,#335,#336);
#295=AXIS2_PLACEMENT_3D('',#452,#337,#338);
#296=AXIS2_PLACEMENT_3D('',#456,#340,#341);
#297=AXIS2_PLACEMENT_3D('',#458,#342,#343);
#298=AXIS2_PLACEMENT_3D('',#459,#344,#345);
#299=AXIS2_PLACEMENT_3D('',#462,#348,#349);
#300=AXIS2_PLACEMENT_3D('',#490,#353,$);
#301=AXIS2_PLACEMENT_3D('',#492,#355,#356);
#302=AXIS2_PLACEMENT_3D('',#495,#359,$);
#303=AXIS2_PLACEMENT_3D('',#496,#360,#361);
#304=AXIS2_PLACEMENT_3D('',#499,#363,$);
#305=AXIS2_PLACEMENT_3D('',#500,#364,#365);
#306=AXIS2_PLACEMENT_3D('',#503,#366,#367);
#307=AXIS2_PLACEMENT_3D('',#505,#369,#370);
#308=AXIS2_PLACEMENT_3D('',#528,#371,$);
#309=AXIS2_PLACEMENT_3D('',#529,#372,#373);
#310=AXIS2_PLACEMENT_3D('',#531,#374,#375);
#311=DIRECTION('',(0.,0.,-1.));
#312=DIRECTION('',(2.4585,0.,0.));
#313=DIRECTION('',(0.,0.,1.));
#314=DIRECTION('',(0.,0.,-1.));
#315=DIRECTION('',(2.4585,0.,0.));
#316=DIRECTION('',(0.,0.,-1.));
#317=DIRECTION('',(2.4585,0.,0.));
#318=DIRECTION('',(0.,0.,-1.));
#319=DIRECTION('',(2.4585,0.,0.));
#320=DIRECTION('',(0.,0.,1.));
#321=DIRECTION('',(2.4585,0.,0.));
#322=DIRECTION('',(1.,0.,0.));
#323=DIRECTION('',(0.,1.,0.));
#324=DIRECTION('',(1.,0.,0.));
#325=DIRECTION('',(0.,0.,0.5));
#326=DIRECTION('',(1.,0.,0.));
#327=DIRECTION('',(0.,0.,15.));
#328=DIRECTION('',(0.,-1.,0.));
#329=DIRECTION('',(1.,0.,0.));
#330=DIRECTION('',(0.,0.,15.));
#331=DIRECTION('',(1.,0.,0.));
#332=DIRECTION('',(0.,0.,0.5));
#333=DIRECTION('',(1.,0.,0.));
#334=DIRECTION('',(0.,1.,0.));
#335=DIRECTION('',(1.,0.,0.));
#336=DIRECTION('',(0.,0.,0.5));
#337=DIRECTION('',(1.,0.,0.));
#338=DIRECTION('',(0.,0.,15.));
#339=DIRECTION('',(0.,-1.,0.));
#340=DIRECTION('',(1.,0.,0.));
#341=DIRECTION('',(0.,0.,15.));
#342=DIRECTION('',(1.,0.,0.));
#343=DIRECTION('',(0.,0.,0.5));
#344=DIRECTION('',(1.,0.,0.));
#345=DIRECTION('',(0.,0.,0.5));
#346=DIRECTION('',(1.,0.,0.));
#347=DIRECTION('',(1.,0.,0.));
#348=DIRECTION('',(1.,0.,0.));
#349=DIRECTION('',(0.,0.,15.));
#350=DIRECTION('',(1.,0.,0.));
#351=DIRECTION('',(1.,0.,0.));
#352=DIRECTION('',(1.,0.,0.));
#353=DIRECTION('',(0.,0.,1.));
#354=DIRECTION('',(1.,0.,0.));
#355=DIRECTION('',(1.,0.,0.));
#356=DIRECTION('',(0.,0.,0.5));
#357=DIRECTION('',(1.,0.,0.));
#358=DIRECTION('',(1.,0.,0.));
#359=DIRECTION('',(0.,0.,1.));
#360=DIRECTION('',(0.,0.,1.));
#361=DIRECTION('',(2.4585,0.,0.));
#362=DIRECTION('',(1.,0.,0.));
#363=DIRECTION('',(0.,0.,1.));
#364=DIRECTION('',(0.,0.,1.));
#365=DIRECTION('',(2.4585,0.,0.));
#366=DIRECTION('',(0.,0.,1.));
#367=DIRECTION('',(2.4585,0.,0.));
#368=DIRECTION('',(1.,0.,0.));
#369=DIRECTION('',(1.,0.,0.));
#370=DIRECTION('',(0.,0.,15.));
#371=DIRECTION('',(0.,0.,-1.));
#372=DIRECTION('',(0.,0.,-1.));
#373=DIRECTION('',(2.4585,0.,0.));
#374=DIRECTION('',(0.,0.,-1.));
#375=DIRECTION('',(2.4585,0.,0.));
#376=DIRECTION('',(0.,0.,1.));
#377=CARTESIAN_POINT('',(13.2,0.,0.));
#378=CARTESIAN_POINT('',(15.6585,0.,-7.00000000000001));
#379=CARTESIAN_POINT('',(15.6585,-3.33066907387547E-16,-7.));
#380=CARTESIAN_POINT('',(15.6585,-3.01079415570377E-16,0.));
#381=CARTESIAN_POINT('',(13.2,0.,-7.));
#382=CARTESIAN_POINT('',(15.1482054971766,-1.49957246932948,-7.));
#383=CARTESIAN_POINT('',(11.0532599761437,-1.19821931213504,-7.19760639109099));
#384=CARTESIAN_POINT('',(11.1382206810922,-1.35043564163044,-7.10038792486802));
#385=CARTESIAN_POINT('',(11.2386522842841,-1.49193154736243,-7.00609430206506));
#386=CARTESIAN_POINT('',(11.4542606475134,-1.73831642720805,-6.83679587599937));
#387=CARTESIAN_POINT('',(11.5754224898344,-1.85311424898384,-6.75527752714938));
#388=CARTESIAN_POINT('',(11.8467369124943,-2.05960275775975,-6.60485445626902));
#389=CARTESIAN_POINT('',(11.9968953998737,-2.15131444164074,-6.53598921480848));
#390=CARTESIAN_POINT('',(12.3178044233825,-2.30159608664067,-6.42125761607393));
#391=CARTESIAN_POINT('',(12.4889509691034,-2.36032250744657,-6.37532879897021));
#392=CARTESIAN_POINT('',(12.8408118614083,-2.43879005645998,-6.31358922208015));
#393=CARTESIAN_POINT('',(13.0215442323088,-2.4585,-6.297841572343));
#394=CARTESIAN_POINT('',(13.3784557676912,-2.4585,-6.297841572343));
#395=CARTESIAN_POINT('',(13.5591881385917,-2.43879005645998,-6.31358922208015));
#396=CARTESIAN_POINT('',(13.9110490308966,-2.36032250744657,-6.37532879897021));
#397=CARTESIAN_POINT('',(14.0821955766175,-2.30159608664067,-6.42125761607393));
#398=CARTESIAN_POINT('',(14.4031046001263,-2.15131444164074,-6.53598921480848));
#399=CARTESIAN_POINT('',(14.5532630875057,-2.05960275775975,-6.60485445626902));
#400=CARTESIAN_POINT('',(14.8245775101656,-1.85311424898384,-6.75527752714938));
#401=CARTESIAN_POINT('',(14.9457393524866,-1.73831642720805,-6.83679587599937));
#402=CARTESIAN_POINT('',(15.1613477157159,-1.49193154736243,-7.00609430206506));
#403=CARTESIAN_POINT('',(15.2617793189077,-1.35043564163044,-7.10038792486802));
#404=CARTESIAN_POINT('',(15.3467400238563,-1.19821931213504,-7.19760639109099));
#405=CARTESIAN_POINT('',(11.2517945028234,-1.49957246932948,-7.));
#406=CARTESIAN_POINT('',(13.2,0.,-7.));
#407=CARTESIAN_POINT('',(11.2517945028234,1.49957246932943,-7.));
#408=CARTESIAN_POINT('',(15.3467400238563,1.19821931213502,-7.19760639109097));
#409=CARTESIAN_POINT('',(15.2617793189078,1.35043564163042,-7.100387924868));
#410=CARTESIAN_POINT('',(15.161347715716,1.49193154736241,-7.00609430206503));
#411=CARTESIAN_POINT('',(14.9457393524866,1.73831642720804,-6.83679587599934));
#412=CARTESIAN_POINT('',(14.8245775101656,1.85311424898382,-6.75527752714935));
#413=CARTESIAN_POINT('',(14.5532630875058,2.05960275775974,-6.60485445626899));
#414=CARTESIAN_POINT('',(14.4031046001263,2.15131444164074,-6.53598921480844));
#415=CARTESIAN_POINT('',(14.0821955766175,2.30159608664066,-6.42125761607389));
#416=CARTESIAN_POINT('',(13.9110490308966,2.36032250744657,-6.37532879897017));
#417=CARTESIAN_POINT('',(13.5591881385917,2.43879005645998,-6.3135892220801));
#418=CARTESIAN_POINT('',(13.3784557676912,2.4585,-6.29784157234295));
#419=CARTESIAN_POINT('',(13.0215442323088,2.4585,-6.29784157234295));
#420=CARTESIAN_POINT('',(12.8408118614083,2.43879005645998,-6.3135892220801));
#421=CARTESIAN_POINT('',(12.4889509691034,2.36032250744657,-6.37532879897017));
#422=CARTESIAN_POINT('',(12.3178044233825,2.30159608664066,-6.42125761607389));
#423=CARTESIAN_POINT('',(11.9968953998737,2.15131444164074,-6.53598921480844));
#424=CARTESIAN_POINT('',(11.8467369124942,2.05960275775974,-6.60485445626899));
#425=CARTESIAN_POINT('',(11.5754224898344,1.85311424898382,-6.75527752714935));
#426=CARTESIAN_POINT('',(11.4542606475134,1.73831642720804,-6.83679587599934));
#427=CARTESIAN_POINT('',(11.238652284284,1.49193154736241,-7.00609430206503));
#428=CARTESIAN_POINT('',(11.1382206810922,1.35043564163042,-7.100387924868));
#429=CARTESIAN_POINT('',(11.0532599761437,1.19821931213502,-7.19760639109097));
#430=CARTESIAN_POINT('',(15.1482054971766,1.49957246932943,-7.));
#431=CARTESIAN_POINT('',(13.2,0.,-7.));
#432=CARTESIAN_POINT('',(13.2,0.,0.));
#433=CARTESIAN_POINT('',(18.,-6.34988954724101,-0.5));
#434=CARTESIAN_POINT('',(18.,-4.88498130835069E-15,0.));
#435=CARTESIAN_POINT('',(18.,6.349889547241,0.));
#436=CARTESIAN_POINT('',(18.,-6.34988954724101,0.));
#437=CARTESIAN_POINT('',(18.,-6.34988954724101,-0.5));
#438=CARTESIAN_POINT('',(18.,-6.8059478074907,-0.704965517241378));
#439=CARTESIAN_POINT('',(18.,6.87579999999994,5.44399999999995));
#440=CARTESIAN_POINT('',(18.,-1.49957246932948,-7.));
#441=CARTESIAN_POINT('',(18.,-3.92473100828518,-7.));
#442=CARTESIAN_POINT('',(18.,1.49957246932943,-7.));
#443=CARTESIAN_POINT('',(18.,-6.87579999999997,5.44399999999997));
#444=CARTESIAN_POINT('',(18.,6.80594780749073,-0.704965517241397));
#445=CARTESIAN_POINT('',(18.,6.349889547241,-0.500000000000001));
#446=CARTESIAN_POINT('',(-18.,-6.34988954724101,-0.5));
#447=CARTESIAN_POINT('',(-18.,-4.88498130835069E-15,0.));
#448=CARTESIAN_POINT('',(-18.,6.349889547241,0.));
#449=CARTESIAN_POINT('',(-18.,-6.34988954724101,0.));
#450=CARTESIAN_POINT('',(-18.,6.349889547241,-0.500000000000001));
#451=CARTESIAN_POINT('',(-18.,6.80594780749069,-0.70496551724138));
#452=CARTESIAN_POINT('',(-18.,-6.87579999999997,5.44399999999997));
#453=CARTESIAN_POINT('',(-18.,1.49957246932943,-7.));
#454=CARTESIAN_POINT('',(-18.,-3.92473100828518,-7.));
#455=CARTESIAN_POINT('',(-18.,-1.49957246932948,-7.));
#456=CARTESIAN_POINT('',(-18.,6.87579999999994,5.44399999999995));
#457=CARTESIAN_POINT('',(-18.,-6.80594780749076,-0.704965517241407));
#458=CARTESIAN_POINT('',(-18.,-6.34988954724101,-0.5));
#459=CARTESIAN_POINT('',(18.,6.349889547241,-0.500000000000001));
#460=CARTESIAN_POINT('',(18.,6.349889547241,0.));
#461=CARTESIAN_POINT('',(18.,6.80594780749069,-0.704965517241379));
#462=CARTESIAN_POINT('',(18.,-6.87579999999997,5.44399999999997));
#463=CARTESIAN_POINT('',(-15.3467400238563,1.19821931213502,-7.19760639109097));
#464=CARTESIAN_POINT('',(-15.2617793189078,1.35043564163042,-7.100387924868));
#465=CARTESIAN_POINT('',(-15.161347715716,1.49193154736241,-7.00609430206503));
#466=CARTESIAN_POINT('',(-14.9457393524866,1.73831642720804,-6.83679587599934));
#467=CARTESIAN_POINT('',(-14.8245775101656,1.85311424898382,-6.75527752714935));
#468=CARTESIAN_POINT('',(-14.5532630875058,2.05960275775974,-6.60485445626899));
#469=CARTESIAN_POINT('',(-14.4031046001263,2.15131444164074,-6.53598921480844));
#470=CARTESIAN_POINT('',(-14.0821955766175,2.30159608664066,-6.42125761607389));
#471=CARTESIAN_POINT('',(-13.9110490308966,2.36032250744656,-6.37532879897017));
#472=CARTESIAN_POINT('',(-13.5591881385917,2.43879005645998,-6.3135892220801));
#473=CARTESIAN_POINT('',(-13.3784557676912,2.4585,-6.29784157234296));
#474=CARTESIAN_POINT('',(-13.0215442323088,2.4585,-6.29784157234295));
#475=CARTESIAN_POINT('',(-12.8408118614083,2.43879005645998,-6.3135892220801));
#476=CARTESIAN_POINT('',(-12.4889509691034,2.36032250744657,-6.37532879897017));
#477=CARTESIAN_POINT('',(-12.3178044233825,2.30159608664067,-6.42125761607388));
#478=CARTESIAN_POINT('',(-11.9968953998737,2.15131444164074,-6.53598921480844));
#479=CARTESIAN_POINT('',(-11.8467369124943,2.05960275775975,-6.60485445626898));
#480=CARTESIAN_POINT('',(-11.5754224898344,1.85311424898383,-6.75527752714934));
#481=CARTESIAN_POINT('',(-11.4542606475134,1.73831642720804,-6.83679587599934));
#482=CARTESIAN_POINT('',(-11.238652284284,1.49193154736241,-7.00609430206503));
#483=CARTESIAN_POINT('',(-11.1382206810922,1.35043564163042,-7.100387924868));
#484=CARTESIAN_POINT('',(-11.0532599761437,1.19821931213502,-7.19760639109097));
#485=CARTESIAN_POINT('',(-15.1482054971766,1.49957246932942,-7.));
#486=CARTESIAN_POINT('',(-11.2517945028234,1.49957246932942,-7.));
#487=CARTESIAN_POINT('',(18.,1.49957246932942,-7.));
#488=CARTESIAN_POINT('',(18.,1.49957246932942,-7.));
#489=CARTESIAN_POINT('',(18.,1.49957246932942,-7.));
#490=CARTESIAN_POINT('',(18.,-1.49957246932935,-7.));
#491=CARTESIAN_POINT('',(18.,-1.49957246932949,-7.));
#492=CARTESIAN_POINT('',(18.,-6.34988954724101,-0.5));
#493=CARTESIAN_POINT('',(18.,-6.8059478074907,-0.704965517241378));
#494=CARTESIAN_POINT('',(18.,-6.34988954724101,0.));
#495=CARTESIAN_POINT('',(18.,-1.49957246932935,-7.));
#496=CARTESIAN_POINT('',(-13.2,0.,-7.));
#497=CARTESIAN_POINT('',(-15.1482054971766,-1.49957246932949,-7.));
#498=CARTESIAN_POINT('',(18.,-1.49957246932949,-7.));
#499=CARTESIAN_POINT('',(18.,-1.49957246932935,-7.));
#500=CARTESIAN_POINT('',(-13.2,0.,-7.));
#501=CARTESIAN_POINT('',(-11.2517945028234,-1.49957246932949,-7.));
#502=CARTESIAN_POINT('',(-10.7415,-3.33066907387547E-16,-7.));
#503=CARTESIAN_POINT('',(-13.2,0.,-7.));
#504=CARTESIAN_POINT('',(18.,-1.49957246932949,-7.));
#505=CARTESIAN_POINT('',(18.,6.87579999999994,5.44399999999995));
#506=CARTESIAN_POINT('',(-11.0532599761437,-1.19821931213504,-7.19760639109099));
#507=CARTESIAN_POINT('',(-11.1382206810923,-1.35043564163044,-7.10038792486802));
#508=CARTESIAN_POINT('',(-11.2386522842841,-1.49193154736243,-7.00609430206506));
#509=CARTESIAN_POINT('',(-11.4542606475134,-1.73831642720805,-6.83679587599937));
#510=CARTESIAN_POINT('',(-11.5754224898344,-1.85311424898384,-6.75527752714938));
#511=CARTESIAN_POINT('',(-11.8467369124943,-2.05960275775975,-6.60485445626902));
#512=CARTESIAN_POINT('',(-11.9968953998737,-2.15131444164074,-6.53598921480848));
#513=CARTESIAN_POINT('',(-12.3178044233825,-2.30159608664067,-6.42125761607393));
#514=CARTESIAN_POINT('',(-12.4889509691034,-2.36032250744657,-6.37532879897021));
#515=CARTESIAN_POINT('',(-12.8408118614083,-2.43879005645998,-6.31358922208014));
#516=CARTESIAN_POINT('',(-13.0215442323088,-2.4585,-6.297841572343));
#517=CARTESIAN_POINT('',(-13.3784557676912,-2.4585,-6.297841572343));
#518=CARTESIAN_POINT('',(-13.5591881385917,-2.43879005645998,-6.31358922208015));
#519=CARTESIAN_POINT('',(-13.9110490308966,-2.36032250744657,-6.37532879897021));
#520=CARTESIAN_POINT('',(-14.0821955766175,-2.30159608664067,-6.42125761607393));
#521=CARTESIAN_POINT('',(-14.4031046001263,-2.15131444164074,-6.53598921480848));
#522=CARTESIAN_POINT('',(-14.5532630875057,-2.05960275775975,-6.60485445626902));
#523=CARTESIAN_POINT('',(-14.8245775101656,-1.85311424898383,-6.75527752714938));
#524=CARTESIAN_POINT('',(-14.9457393524866,-1.73831642720805,-6.83679587599937));
#525=CARTESIAN_POINT('',(-15.1613477157159,-1.49193154736243,-7.00609430206506));
#526=CARTESIAN_POINT('',(-15.2617793189077,-1.35043564163044,-7.10038792486802));
#527=CARTESIAN_POINT('',(-15.3467400238563,-1.19821931213504,-7.19760639109099));
#528=CARTESIAN_POINT('',(18.,6.349889547241,0.));
#529=CARTESIAN_POINT('',(-13.2,0.,0.));
#530=CARTESIAN_POINT('',(-10.7415,-3.01079415570377E-16,0.));
#531=CARTESIAN_POINT('',(-13.2,0.,0.));
#532=CARTESIAN_POINT('',(-10.7415,0.,-7.00000000000001));
#533=CYLINDRICAL_SURFACE('',#283,2.4585);
#534=CYLINDRICAL_SURFACE('',#298,0.5);
#535=CYLINDRICAL_SURFACE('',#299,15.);
#536=CYLINDRICAL_SURFACE('',#301,0.5);
#537=CYLINDRICAL_SURFACE('',#307,15.);
#538=CYLINDRICAL_SURFACE('',#310,2.4585);
#539=CLOSED_SHELL('',(#271,#272,#273,#274,#275,#276,#277,#278,#279,#280,
#281,#282));
#540=MANIFOLD_SOLID_BREP('',#539);
#541=ADVANCED_BREP_SHAPE_REPRESENTATION('',(#540),#52);
ENDSEC;
END-ISO-10303-21;
