ISO-10303-21;
HEADER;
/* Generated by software containing ST-Developer
 * from STEP Tools, Inc. (www.steptools.com) 
 */

FILE_DESCRIPTION(
/* description */ ('Alibre Inc.'),
/* implementation_level */ '2;1');

FILE_NAME(
/* name */ 'export-994D5B74-010C-4B07-82F6-5119A14E4D48',
/* time_stamp */ '2025-02-18T21:01:57+01:00',
/* author */ (''),
/* organization */ (''),
/* preprocessor_version */ 'ST-DEVELOPER v17',
/* originating_system */ 'Alibre',
/* authorisation */ '');

FILE_SCHEMA (('AUTOMOTIVE_DESIGN'));
ENDSEC;

DATA;
#10=CONTEXT_DEPENDENT_SHAPE_REPRESENTATION(#16,#44);
#11=CONTEXT_DEPENDENT_SHAPE_REPRESENTATION(#17,#45);
#12=NEXT_ASSEMBLY_USAGE_OCCURRENCE('NAUO_ID9','NAUO_NAME9',$,#48,#46,$);
#13=NEXT_ASSEMBLY_USAGE_OCCURRENCE('NAUO_ID19','NAUO_NAME19',$,#48,#47,
$);
#14=ITEM_DEFINED_TRANSFORMATION('ITD_NAME0',$,#162,#161);
#15=ITEM_DEFINED_TRANSFORMATION('ITD_NAME10',$,#164,#163);
#16=(
REPRESENTATION_RELATIONSHIP('368-2 0.25mm2 core 0.56mm diameter',$,#63,
#65)
REPRESENTATION_RELATIONSHIP_WITH_TRANSFORMATION(#14)
SHAPE_REPRESENTATION_RELATIONSHIP()
);
#17=(
REPRESENTATION_RELATIONSHIP('368-1 Green Insulation 0.25mm2',$,#64,#65)
REPRESENTATION_RELATIONSHIP_WITH_TRANSFORMATION(#15)
SHAPE_REPRESENTATION_RELATIONSHIP()
);
#18=STYLED_ITEM('NAME_0',(#33),#223);
#19=STYLED_ITEM('NAME_0',(#34),#224);
#20=MECHANICAL_DESIGN_GEOMETRIC_PRESENTATION_REPRESENTATION('NAME_0',(#18,
#19),#80);
#21=COLOUR_RGB('',1.,0.580392156862745,0.156862745098039);
#22=COLOUR_RGB('',0.,0.843137254901961,0.);
#23=FILL_AREA_STYLE_COLOUR('NAME_0',#21);
#24=FILL_AREA_STYLE_COLOUR('NAME_0',#22);
#25=FILL_AREA_STYLE('NAME_0',(#23));
#26=FILL_AREA_STYLE('NAME_0',(#24));
#27=SURFACE_STYLE_FILL_AREA(#25);
#28=SURFACE_STYLE_FILL_AREA(#26);
#29=SURFACE_SIDE_STYLE('NAME_0',(#27));
#30=SURFACE_SIDE_STYLE('NAME_0',(#28));
#31=SURFACE_STYLE_USAGE(.POSITIVE.,#29);
#32=SURFACE_STYLE_USAGE(.POSITIVE.,#30);
#33=PRESENTATION_STYLE_ASSIGNMENT((#31));
#34=PRESENTATION_STYLE_ASSIGNMENT((#32));
#35=PRODUCT_DEFINITION_CONTEXT('part definition',#56,'design');
#36=PRODUCT_DEFINITION_CONTEXT('part definition',#56,'design');
#37=PRODUCT_DEFINITION_CONTEXT('part definition',#56,'design');
#38=SHAPE_DEFINITION_REPRESENTATION(#41,#63);
#39=SHAPE_DEFINITION_REPRESENTATION(#42,#64);
#40=SHAPE_DEFINITION_REPRESENTATION(#43,#65);
#41=PRODUCT_DEFINITION_SHAPE('PRODUCT_VERSION_ID',
'PRODUCT_VERSION_DESCR',#46);
#42=PRODUCT_DEFINITION_SHAPE('PRODUCT_VERSION_ID',
'PRODUCT_VERSION_DESCR',#47);
#43=PRODUCT_DEFINITION_SHAPE('PRODUCT_VERSION_ID',
'PRODUCT_VERSION_DESCR',#48);
#44=PRODUCT_DEFINITION_SHAPE('NAME_10',$,#12);
#45=PRODUCT_DEFINITION_SHAPE('NAME_20',$,#13);
#46=PRODUCT_DEFINITION('368-2 0.25mm2 core 0.56mm diameter',
'PRODUCT_VERSION_DESCR',#49,#35);
#47=PRODUCT_DEFINITION('368-1 Green Insulation 0.25mm2',
'PRODUCT_VERSION_DESCR',#50,#36);
#48=PRODUCT_DEFINITION('PRODUCT_VERSION_ID','PRODUCT_VERSION_DESCR',#51,
#37);
#49=PRODUCT_DEFINITION_FORMATION_WITH_SPECIFIED_SOURCE(
'PRODUCT_VERSION_ID','PRODUCT_VERSION_DESCR',#60,.MADE.);
#50=PRODUCT_DEFINITION_FORMATION_WITH_SPECIFIED_SOURCE(
'PRODUCT_VERSION_ID','PRODUCT_VERSION_DESCR',#61,.MADE.);
#51=PRODUCT_DEFINITION_FORMATION_WITH_SPECIFIED_SOURCE(
'PRODUCT_VERSION_ID','PRODUCT_VERSION_DESCR',#62,.MADE.);
#52=PRODUCT_RELATED_PRODUCT_CATEGORY('part','part',(#60));
#53=PRODUCT_RELATED_PRODUCT_CATEGORY('part','part',(#61));
#54=PRODUCT_RELATED_PRODUCT_CATEGORY('part','part',(#62));
#55=APPLICATION_PROTOCOL_DEFINITION('Draft International Standard',
'automotive_design',1994,#56);
#56=APPLICATION_CONTEXT('automotive_Design');
#57=PRODUCT_CONTEXT('3D Mechanical Parts',#56,'mechanical');
#58=PRODUCT_CONTEXT('3D Mechanical Parts',#56,'mechanical');
#59=PRODUCT_CONTEXT('3D Mechanical Parts',#56,'mechanical');
#60=PRODUCT('','368-2 0.25mm2 core 0.56mm diameter','',(#57));
#61=PRODUCT('','368-1 Green Insulation 0.25mm2','',(#58));
#62=PRODUCT('','368 Single Conductor Wire Green 0,25mm\X\B2, LiY,70\X\B0
C','',(#59));
#63=SHAPE_REPRESENTATION('368-2 0.25mm2 core 0.56mm diameter',(#162),#80);
#64=SHAPE_REPRESENTATION('368-1 Green Insulation 0.25mm2',(#164),#81);
#65=SHAPE_REPRESENTATION('NAME_0',(#161,#163),#82);
#66=SHAPE_REPRESENTATION_RELATIONSHIP('NAME_0',$,#63,#225);
#67=SHAPE_REPRESENTATION_RELATIONSHIP('NAME_0',$,#64,#226);
#68=(
LENGTH_UNIT()
NAMED_UNIT(*)
SI_UNIT(.MILLI.,.METRE.)
);
#69=(
LENGTH_UNIT()
NAMED_UNIT(*)
SI_UNIT(.MILLI.,.METRE.)
);
#70=(
LENGTH_UNIT()
NAMED_UNIT(*)
SI_UNIT(.MILLI.,.METRE.)
);
#71=(
NAMED_UNIT(*)
PLANE_ANGLE_UNIT()
SI_UNIT($,.RADIAN.)
);
#72=(
NAMED_UNIT(*)
PLANE_ANGLE_UNIT()
SI_UNIT($,.RADIAN.)
);
#73=(
NAMED_UNIT(*)
PLANE_ANGLE_UNIT()
SI_UNIT($,.RADIAN.)
);
#74=(
NAMED_UNIT(*)
SI_UNIT($,.STERADIAN.)
SOLID_ANGLE_UNIT()
);
#75=(
NAMED_UNIT(*)
SI_UNIT($,.STERADIAN.)
SOLID_ANGLE_UNIT()
);
#76=(
NAMED_UNIT(*)
SI_UNIT($,.STERADIAN.)
SOLID_ANGLE_UNIT()
);
#77=UNCERTAINTY_MEASURE_WITH_UNIT(LENGTH_MEASURE(1.E-6),#68,
'DISTANCE_ACCURACY_VALUE',
'Maximum model space distance between geometric entities at asserted c
onnectivities');
#78=UNCERTAINTY_MEASURE_WITH_UNIT(LENGTH_MEASURE(1.E-6),#69,
'DISTANCE_ACCURACY_VALUE',
'Maximum model space distance between geometric entities at asserted c
onnectivities');
#79=UNCERTAINTY_MEASURE_WITH_UNIT(LENGTH_MEASURE(1.E-6),#70,
'DISTANCE_ACCURACY_VALUE',
'Maximum model space distance between geometric entities at asserted c
onnectivities');
#80=(
GEOMETRIC_REPRESENTATION_CONTEXT(3)
GLOBAL_UNCERTAINTY_ASSIGNED_CONTEXT((#77))
GLOBAL_UNIT_ASSIGNED_CONTEXT((#74,#71,#68))
REPRESENTATION_CONTEXT('ID1','3D')
);
#81=(
GEOMETRIC_REPRESENTATION_CONTEXT(3)
GLOBAL_UNCERTAINTY_ASSIGNED_CONTEXT((#78))
GLOBAL_UNIT_ASSIGNED_CONTEXT((#75,#72,#69))
REPRESENTATION_CONTEXT('ID1','3D')
);
#82=(
GEOMETRIC_REPRESENTATION_CONTEXT(3)
GLOBAL_UNCERTAINTY_ASSIGNED_CONTEXT((#79))
GLOBAL_UNIT_ASSIGNED_CONTEXT((#76,#73,#70))
REPRESENTATION_CONTEXT('ID1','3D')
);
#83=PLANE('',#151);
#84=PLANE('',#152);
#85=PLANE('',#159);
#86=PLANE('',#160);
#87=VERTEX_POINT('',#197);
#88=VERTEX_POINT('',#199);
#89=VERTEX_POINT('',#204);
#90=VERTEX_POINT('',#206);
#91=VERTEX_POINT('',#209);
#92=VERTEX_POINT('',#211);
#93=CIRCLE('',#149,0.28);
#94=CIRCLE('',#150,0.28);
#95=CIRCLE('',#154,0.65);
#96=CIRCLE('',#155,0.65);
#97=CIRCLE('',#157,0.28);
#98=CIRCLE('',#158,0.28);
#99=EDGE_CURVE('',#87,#87,#93,.T.);
#100=EDGE_CURVE('',#88,#88,#94,.T.);
#101=EDGE_CURVE('',#89,#89,#95,.T.);
#102=EDGE_CURVE('',#90,#90,#96,.T.);
#103=EDGE_CURVE('',#91,#91,#97,.T.);
#104=EDGE_CURVE('',#92,#92,#98,.T.);
#105=ORIENTED_EDGE('',*,*,#99,.T.);
#106=ORIENTED_EDGE('',*,*,#100,.T.);
#107=ORIENTED_EDGE('',*,*,#99,.F.);
#108=ORIENTED_EDGE('',*,*,#100,.F.);
#109=ORIENTED_EDGE('',*,*,#101,.T.);
#110=ORIENTED_EDGE('',*,*,#102,.T.);
#111=ORIENTED_EDGE('',*,*,#103,.T.);
#112=ORIENTED_EDGE('',*,*,#104,.F.);
#113=ORIENTED_EDGE('',*,*,#103,.F.);
#114=ORIENTED_EDGE('',*,*,#101,.F.);
#115=ORIENTED_EDGE('',*,*,#104,.T.);
#116=ORIENTED_EDGE('',*,*,#102,.F.);
#117=EDGE_LOOP('',(#105));
#118=EDGE_LOOP('',(#106));
#119=EDGE_LOOP('',(#107));
#120=EDGE_LOOP('',(#108));
#121=EDGE_LOOP('',(#109));
#122=EDGE_LOOP('',(#110));
#123=EDGE_LOOP('',(#111));
#124=EDGE_LOOP('',(#112));
#125=EDGE_LOOP('',(#113));
#126=EDGE_LOOP('',(#114));
#127=EDGE_LOOP('',(#115));
#128=EDGE_LOOP('',(#116));
#129=FACE_BOUND('',#117,.T.);
#130=FACE_BOUND('',#118,.T.);
#131=FACE_BOUND('',#119,.T.);
#132=FACE_BOUND('',#120,.T.);
#133=FACE_BOUND('',#121,.T.);
#134=FACE_BOUND('',#122,.T.);
#135=FACE_BOUND('',#123,.T.);
#136=FACE_BOUND('',#124,.T.);
#137=FACE_BOUND('',#125,.T.);
#138=FACE_BOUND('',#126,.T.);
#139=FACE_BOUND('',#127,.T.);
#140=FACE_BOUND('',#128,.T.);
#141=ADVANCED_FACE('',(#129,#130),#218,.T.);
#142=ADVANCED_FACE('',(#131),#83,.T.);
#143=ADVANCED_FACE('',(#132),#84,.F.);
#144=ADVANCED_FACE('',(#133,#134),#219,.T.);
#145=ADVANCED_FACE('',(#135,#136),#220,.F.);
#146=ADVANCED_FACE('',(#137,#138),#85,.T.);
#147=ADVANCED_FACE('',(#139,#140),#86,.F.);
#148=AXIS2_PLACEMENT_3D('',#195,#165,#166);
#149=AXIS2_PLACEMENT_3D('',#196,#167,#168);
#150=AXIS2_PLACEMENT_3D('',#198,#169,#170);
#151=AXIS2_PLACEMENT_3D('',#200,#171,$);
#152=AXIS2_PLACEMENT_3D('',#201,#172,$);
#153=AXIS2_PLACEMENT_3D('',#202,#173,#174);
#154=AXIS2_PLACEMENT_3D('',#203,#175,#176);
#155=AXIS2_PLACEMENT_3D('',#205,#177,#178);
#156=AXIS2_PLACEMENT_3D('',#207,#179,#180);
#157=AXIS2_PLACEMENT_3D('',#208,#181,#182);
#158=AXIS2_PLACEMENT_3D('',#210,#183,#184);
#159=AXIS2_PLACEMENT_3D('',#212,#185,$);
#160=AXIS2_PLACEMENT_3D('',#213,#186,$);
#161=AXIS2_PLACEMENT_3D('AXIS_PLACEMENT_1',#214,#187,#188);
#162=AXIS2_PLACEMENT_3D('AXIS_PLACEMENT_5',#215,#189,#190);
#163=AXIS2_PLACEMENT_3D('AXIS_PLACEMENT_11',#216,#191,#192);
#164=AXIS2_PLACEMENT_3D('AXIS_PLACEMENT_15',#217,#193,#194);
#165=DIRECTION('',(0.,0.,1.));
#166=DIRECTION('',(0.28,0.,0.));
#167=DIRECTION('',(0.,0.,-1.));
#168=DIRECTION('',(0.28,0.,0.));
#169=DIRECTION('',(0.,0.,1.));
#170=DIRECTION('',(0.28,0.,0.));
#171=DIRECTION('',(0.,0.,1.));
#172=DIRECTION('',(0.,0.,1.));
#173=DIRECTION('',(0.,0.,1.));
#174=DIRECTION('',(0.65,0.,0.));
#175=DIRECTION('',(0.,0.,-1.));
#176=DIRECTION('',(0.65,0.,0.));
#177=DIRECTION('',(0.,0.,1.));
#178=DIRECTION('',(0.65,0.,0.));
#179=DIRECTION('',(0.,0.,1.));
#180=DIRECTION('',(0.28,0.,0.));
#181=DIRECTION('',(0.,0.,1.));
#182=DIRECTION('',(0.28,0.,0.));
#183=DIRECTION('',(0.,0.,1.));
#184=DIRECTION('',(0.28,0.,0.));
#185=DIRECTION('',(0.,0.,1.));
#186=DIRECTION('',(0.,0.,1.));
#187=DIRECTION('DIRECTION2',(0.,0.,10.));
#188=DIRECTION('DIRECTION3',(10.,0.,0.));
#189=DIRECTION('DIRECTION6',(0.,0.,1.));
#190=DIRECTION('DIRECTION7',(1.,0.,0.));
#191=DIRECTION('DIRECTION12',(0.,0.,10.));
#192=DIRECTION('DIRECTION13',(9.92096302180635,1.25478791831569,0.));
#193=DIRECTION('DIRECTION16',(0.,0.,1.));
#194=DIRECTION('DIRECTION17',(1.,0.,0.));
#195=CARTESIAN_POINT('',(0.,0.,0.));
#196=CARTESIAN_POINT('',(0.,0.,50.));
#197=CARTESIAN_POINT('',(0.28,0.,50.));
#198=CARTESIAN_POINT('',(0.,0.,0.));
#199=CARTESIAN_POINT('',(0.28,0.,0.));
#200=CARTESIAN_POINT('',(0.,0.,50.));
#201=CARTESIAN_POINT('',(0.,0.,0.));
#202=CARTESIAN_POINT('',(0.,0.,0.));
#203=CARTESIAN_POINT('',(0.,0.,50.));
#204=CARTESIAN_POINT('',(0.65,0.,50.));
#205=CARTESIAN_POINT('',(0.,0.,0.));
#206=CARTESIAN_POINT('',(0.65,0.,0.));
#207=CARTESIAN_POINT('',(0.,0.,0.));
#208=CARTESIAN_POINT('',(0.,0.,50.));
#209=CARTESIAN_POINT('',(0.28,0.,50.));
#210=CARTESIAN_POINT('',(0.,0.,0.));
#211=CARTESIAN_POINT('',(0.28,0.,0.));
#212=CARTESIAN_POINT('',(0.,0.,50.));
#213=CARTESIAN_POINT('',(0.,0.,0.));
#214=CARTESIAN_POINT('CARTESIAN_POINT4',(0.00027582049369812,0.000275894999504089,
0.));
#215=CARTESIAN_POINT('CARTESIAN_POINT8',(0.,0.,0.));
#216=CARTESIAN_POINT('CARTESIAN_POINT14',(0.000275820493701284,0.000275894999501813,
0.));
#217=CARTESIAN_POINT('CARTESIAN_POINT18',(0.,0.,0.));
#218=CYLINDRICAL_SURFACE('',#148,0.28);
#219=CYLINDRICAL_SURFACE('',#153,0.65);
#220=CYLINDRICAL_SURFACE('',#156,0.28);
#221=CLOSED_SHELL('',(#141,#142,#143));
#222=CLOSED_SHELL('',(#144,#145,#146,#147));
#223=MANIFOLD_SOLID_BREP('',#221);
#224=MANIFOLD_SOLID_BREP('',#222);
#225=ADVANCED_BREP_SHAPE_REPRESENTATION(
'368-2 0.25mm2 core 0.56mm diameter',(#223),#80);
#226=ADVANCED_BREP_SHAPE_REPRESENTATION(
'368-1 Green Insulation 0.25mm2',(#224),#81);
ENDSEC;
END-ISO-10303-21;
