ISO-10303-21;
HEADER;

/* File generated by Alibre Version V28 */

FILE_DESCRIPTION(('HOOPS Exchange Step'),'2;1');

FILE_NAME('C:\\Users\\Gebruiker\\AppData\\Local\\Temp\\Alibre Design\\28.0.4.28141\\export-AB5F854B-5810-4427-B546-ECC6687EFD84.stp',
'2025-02-25T07:43:44+01:00',
('Gebruiker'),
('Alibre'),
'HOOPS Exchange 2024.5',
'Alibre',
'Unknown authorisation');

FILE_SCHEMA( ('AP242_MANAGED_MODEL_BASED_3D_ENGINEERING_MIM_LF {1 0 10303 442 1 1 4 }') );

ENDSEC;

DATA;
#3=(NAMED_UNIT(*)PLANE_ANGLE_UNIT()SI_UNIT($,.RADIAN.));
#4=PLANE_ANGLE_MEASURE_WITH_UNIT(PLANE_ANGLE_MEASURE(0.0174532925),#3);
#5=(CONVERSION_BASED_UNIT('DEGREE',#4)NAMED_UNIT(#6)PLANE_ANGLE_UNIT());
#6=DIMENSIONAL_EXPONENTS(0.,0.,0.,0.,0.,0.,0.);
#7=(NAMED_UNIT(*)SI_UNIT($,.STERADIAN.)SOLID_ANGLE_UNIT());
#8=(LENGTH_UNIT()NAMED_UNIT(*)SI_UNIT(.MILLI.,.METRE.));
#9=UNCERTAINTY_MEASURE_WITH_UNIT(LENGTH_MEASURE(1.000000E-03),#8,'DISTANCE_ACCURACY_VALUE','Maximum Tolerance applied to model');
#10=(GEOMETRIC_REPRESENTATION_CONTEXT(3)GLOBAL_UNCERTAINTY_ASSIGNED_CONTEXT((#9))GLOBAL_UNIT_ASSIGNED_CONTEXT((#8,#5,#7))REPRESENTATION_CONTEXT('','370 Single Conductor Wire Violet (Purple) 0,25mm\S\2, LiY,70\S\0C'));
#12=CARTESIAN_POINT('',(0.,0.,0.));
#13=DIRECTION('',(0.,0.,1.));
#14=DIRECTION('',(1.,0.,0.));
#15=AXIS2_PLACEMENT_3D('',#12,#13,#14);
#26=(NAMED_UNIT(*)PLANE_ANGLE_UNIT()SI_UNIT($,.RADIAN.));
#27=PLANE_ANGLE_MEASURE_WITH_UNIT(PLANE_ANGLE_MEASURE(0.0174532925),#26);
#28=(CONVERSION_BASED_UNIT('DEGREE',#27)NAMED_UNIT(#29)PLANE_ANGLE_UNIT());
#29=DIMENSIONAL_EXPONENTS(0.,0.,0.,0.,0.,0.,0.);
#30=(NAMED_UNIT(*)SI_UNIT($,.STERADIAN.)SOLID_ANGLE_UNIT());
#31=(LENGTH_UNIT()NAMED_UNIT(*)SI_UNIT(.MILLI.,.METRE.));
#32=UNCERTAINTY_MEASURE_WITH_UNIT(LENGTH_MEASURE(1.000000E-06),#31,'DISTANCE_ACCURACY_VALUE','Maximum Tolerance applied to model');
#33=(GEOMETRIC_REPRESENTATION_CONTEXT(3)GLOBAL_UNCERTAINTY_ASSIGNED_CONTEXT((#32))GLOBAL_UNIT_ASSIGNED_CONTEXT((#31,#28,#30))REPRESENTATION_CONTEXT('','370-2 0.25mm2 core 0.56mm diameter'));
#45=CARTESIAN_POINT('',(0.00027582,0.000275895,0.));
#46=DIRECTION('',(0.,0.,1.));
#47=DIRECTION('',(1.,0.,-0.));
#48=AXIS2_PLACEMENT_3D('',#45,#46,#47);
#49=ITEM_DEFINED_TRANSFORMATION('','',#48,#15);
#50=(REPRESENTATION_RELATIONSHIP('','',#35,#16)REPRESENTATION_RELATIONSHIP_WITH_TRANSFORMATION(#49)SHAPE_REPRESENTATION_RELATIONSHIP());
#51=NEXT_ASSEMBLY_USAGE_OCCURRENCE('370-2 0.25mm2 core 0.56mm diameter_1','370-2 0.25mm2 core 0.56mm diameter','370-2 0.25mm2 core 0.56mm diameter',#25,#44,$);
#52=PRODUCT_DEFINITION_SHAPE('','',#51);
#53=CONTEXT_DEPENDENT_SHAPE_REPRESENTATION(#50,#52);
#55=CARTESIAN_POINT('',(0.,0.,0.));
#56=DIRECTION('',(0.,0.,1.));
#57=DIRECTION('',(1.,0.,0.));
#58=AXIS2_PLACEMENT_3D('',#55,#56,#57);
#59=CYLINDRICAL_SURFACE('',#58,0.28);
#60=CARTESIAN_POINT('',(-0.28,-0.,50.));
#61=VERTEX_POINT('',#60);
#62=CARTESIAN_POINT('',(-0.28,0.,0.));
#63=VERTEX_POINT('',#62);
#64=CARTESIAN_POINT('',(-0.28,0.,50.));
#65=DIRECTION('',(-0.,-0.,-1.));
#66=VECTOR('',#65,50.);
#67=LINE('',#64,#66);
#68=EDGE_CURVE('',#61,#63,#67,.T.);
#69=ORIENTED_EDGE('',*,*,#68,.T.);
#70=CARTESIAN_POINT('',(0.28,0.,0.));
#71=VERTEX_POINT('',#70);
#72=CARTESIAN_POINT('',(0.,0.,-0.));
#73=DIRECTION('',(0.,0.,1.));
#74=DIRECTION('',(1.,-0.,0.));
#75=AXIS2_PLACEMENT_3D('',#72,#73,#74);
#76=CIRCLE('',#75,0.28);
#77=EDGE_CURVE('',#63,#71,#76,.T.);
#78=ORIENTED_EDGE('',*,*,#77,.T.);
#79=CARTESIAN_POINT('',(0.,0.,-0.));
#80=DIRECTION('',(0.,0.,1.));
#81=DIRECTION('',(1.,-0.,0.));
#82=AXIS2_PLACEMENT_3D('',#79,#80,#81);
#83=CIRCLE('',#82,0.28);
#84=EDGE_CURVE('',#71,#63,#83,.T.);
#85=ORIENTED_EDGE('',*,*,#84,.T.);
#86=ORIENTED_EDGE('',*,*,#68,.F.);
#87=CARTESIAN_POINT('',(0.28,0.,50.));
#88=VERTEX_POINT('',#87);
#89=CARTESIAN_POINT('',(0.,0.,50.));
#90=DIRECTION('',(0.,0.,-1.));
#91=DIRECTION('',(1.,0.,0.));
#92=AXIS2_PLACEMENT_3D('',#89,#90,#91);
#93=CIRCLE('',#92,0.28);
#94=EDGE_CURVE('',#61,#88,#93,.T.);
#95=ORIENTED_EDGE('',*,*,#94,.T.);
#96=CARTESIAN_POINT('',(0.,0.,50.));
#97=DIRECTION('',(0.,0.,-1.));
#98=DIRECTION('',(1.,0.,0.));
#99=AXIS2_PLACEMENT_3D('',#96,#97,#98);
#100=CIRCLE('',#99,0.28);
#101=EDGE_CURVE('',#88,#61,#100,.T.);
#102=ORIENTED_EDGE('',*,*,#101,.T.);
#103=EDGE_LOOP('',(#69,#78,#85,#86,#95,#102));
#104=FACE_BOUND('',#103,.T.);
#105=ADVANCED_FACE('',(#104),#59,.T.);
#106=CARTESIAN_POINT('',(0.,0.,50.));
#107=DIRECTION('',(0.,0.,1.));
#108=DIRECTION('',(1.,0.,0.));
#109=AXIS2_PLACEMENT_3D('',#106,#107,#108);
#110=PLANE('',#109);
#111=ORIENTED_EDGE('',*,*,#94,.F.);
#112=ORIENTED_EDGE('',*,*,#101,.F.);
#113=EDGE_LOOP('',(#111,#112));
#114=FACE_BOUND('',#113,.T.);
#115=ADVANCED_FACE('',(#114),#110,.T.);
#116=CARTESIAN_POINT('',(0.,0.,0.));
#117=DIRECTION('',(0.,0.,1.));
#118=DIRECTION('',(1.,0.,0.));
#119=AXIS2_PLACEMENT_3D('',#116,#117,#118);
#120=PLANE('',#119);
#121=ORIENTED_EDGE('',*,*,#77,.F.);
#122=ORIENTED_EDGE('',*,*,#84,.F.);
#123=EDGE_LOOP('',(#121,#122));
#124=FACE_BOUND('',#123,.T.);
#125=ADVANCED_FACE('',(#124),#120,.F.);
#126=CLOSED_SHELL('',(#105,#115,#125));
#127=MANIFOLD_SOLID_BREP('alibrePartClosedBody',#126);
#128=COLOUR_RGB('',1.,0.580392182,0.156862751);
#129=FILL_AREA_STYLE_COLOUR('',#128);
#130=FILL_AREA_STYLE('',(#129));
#131=SURFACE_STYLE_FILL_AREA(#130);
#132=SURFACE_SIDE_STYLE('',(#131));
#133=SURFACE_STYLE_USAGE(.BOTH.,#132);
#134=PRESENTATION_STYLE_ASSIGNMENT((#133));
#54=STYLED_ITEM('',(#134),#127);
#135=CONTEXT_DEPENDENT_OVER_RIDING_STYLED_ITEM('',(#134),#35,#54,(#50));
#35=SHAPE_REPRESENTATION('370-2 0.25mm2 core 0.56mm diameter',(#15),#33);
#36=ADVANCED_BREP_SHAPE_REPRESENTATION('370-2 0.25mm2 core 0.56mm diameter',(#127),#33);
#143=SHAPE_REPRESENTATION_RELATIONSHIP('','',#35,#36);
#144=CARTESIAN_POINT('',(0.,0.,0.));
#145=DIRECTION('',(0.,0.,1.));
#146=DIRECTION('',(1.,0.,0.));
#147=AXIS2_PLACEMENT_3D('',#144,#145,#146);
#149=MAPPED_ITEM('',#148,#147);
#148=REPRESENTATION_MAP(#147,#35);
#150=APPLICATION_CONTEXT('Managed model based 3d engineering');
#151=APPLICATION_PROTOCOL_DEFINITION('international standard','ap242_managed_model_based_3d_engineering',2013,#150);
#152=PRODUCT_CONTEXT('',#150,'mechanical');
#153=PRODUCT_DEFINITION_CONTEXT('part definition',#150,'design');
#43=PRODUCT('370-2 0.25mm2 core 0.56mm diameter','370-2 0.25mm2 core 0.56mm diameter','',(#152));
#154=PRODUCT_RELATED_PRODUCT_CATEGORY('part','',(#43));
#155=PRODUCT_DEFINITION_FORMATION_WITH_SPECIFIED_SOURCE('','',#43,.NOT_KNOWN.);
#44=PRODUCT_DEFINITION('design','',#155,#153);
#42=PRODUCT_DEFINITION_SHAPE('','',#44);
#156=SHAPE_DEFINITION_REPRESENTATION(#42,#35);
#34=DRAUGHTING_MODEL('',(#149),#33);
#157=(NAMED_UNIT(*)PLANE_ANGLE_UNIT()SI_UNIT($,.RADIAN.));
#158=PLANE_ANGLE_MEASURE_WITH_UNIT(PLANE_ANGLE_MEASURE(0.0174532925),#157);
#159=(CONVERSION_BASED_UNIT('DEGREE',#158)NAMED_UNIT(#160)PLANE_ANGLE_UNIT());
#160=DIMENSIONAL_EXPONENTS(0.,0.,0.,0.,0.,0.,0.);
#161=(NAMED_UNIT(*)SI_UNIT($,.STERADIAN.)SOLID_ANGLE_UNIT());
#162=(LENGTH_UNIT()NAMED_UNIT(*)SI_UNIT(.MILLI.,.METRE.));
#163=UNCERTAINTY_MEASURE_WITH_UNIT(LENGTH_MEASURE(1.000000E-06),#162,'DISTANCE_ACCURACY_VALUE','Maximum Tolerance applied to model');
#164=(GEOMETRIC_REPRESENTATION_CONTEXT(3)GLOBAL_UNCERTAINTY_ASSIGNED_CONTEXT((#163))GLOBAL_UNIT_ASSIGNED_CONTEXT((#162,#159,#161))REPRESENTATION_CONTEXT('','370-1 Violet (Purple) Insulation 0.25mm2'));
#176=CARTESIAN_POINT('',(0.00027582,0.000275895,0.));
#177=DIRECTION('',(0.,-0.,1.));
#178=DIRECTION('',(0.992096302,0.125478792,0.));
#179=AXIS2_PLACEMENT_3D('',#176,#177,#178);
#180=ITEM_DEFINED_TRANSFORMATION('','',#179,#15);
#181=(REPRESENTATION_RELATIONSHIP('','',#166,#16)REPRESENTATION_RELATIONSHIP_WITH_TRANSFORMATION(#180)SHAPE_REPRESENTATION_RELATIONSHIP());
#182=NEXT_ASSEMBLY_USAGE_OCCURRENCE('370-1 Violet (Purple) Insulation 0.25mm2_2','370-1 Violet (Purple) Insulation 0.25mm2','370-1 Violet (Purple) Insulation 0.25mm2',#25,#175,$);
#183=PRODUCT_DEFINITION_SHAPE('','',#182);
#184=CONTEXT_DEPENDENT_SHAPE_REPRESENTATION(#181,#183);
#186=CARTESIAN_POINT('',(0.,0.,-0.));
#187=DIRECTION('',(0.,0.,1.));
#188=DIRECTION('',(1.,-0.,0.));
#189=AXIS2_PLACEMENT_3D('',#186,#187,#188);
#190=CYLINDRICAL_SURFACE('',#189,0.65);
#191=CARTESIAN_POINT('',(-0.65,0.,50.));
#192=VERTEX_POINT('',#191);
#193=CARTESIAN_POINT('',(-0.65,0.,0.));
#194=VERTEX_POINT('',#193);
#195=CARTESIAN_POINT('',(-0.65,0.,50.));
#196=DIRECTION('',(-0.,-0.,-1.));
#197=VECTOR('',#196,50.);
#198=LINE('',#195,#197);
#199=EDGE_CURVE('',#192,#194,#198,.T.);
#200=ORIENTED_EDGE('',*,*,#199,.T.);
#201=CARTESIAN_POINT('',(0.65,-0.,0.));
#202=VERTEX_POINT('',#201);
#203=CARTESIAN_POINT('',(0.,0.,-0.));
#204=DIRECTION('',(0.,0.,1.));
#205=DIRECTION('',(1.,-0.,0.));
#206=AXIS2_PLACEMENT_3D('',#203,#204,#205);
#207=CIRCLE('',#206,0.65);
#208=EDGE_CURVE('',#194,#202,#207,.T.);
#209=ORIENTED_EDGE('',*,*,#208,.T.);
#210=CARTESIAN_POINT('',(0.,0.,-0.));
#211=DIRECTION('',(0.,0.,1.));
#212=DIRECTION('',(1.,-0.,0.));
#213=AXIS2_PLACEMENT_3D('',#210,#211,#212);
#214=CIRCLE('',#213,0.65);
#215=EDGE_CURVE('',#202,#194,#214,.T.);
#216=ORIENTED_EDGE('',*,*,#215,.T.);
#217=ORIENTED_EDGE('',*,*,#199,.F.);
#218=CARTESIAN_POINT('',(0.65,-0.,50.));
#219=VERTEX_POINT('',#218);
#220=CARTESIAN_POINT('',(0.,0.,50.));
#221=DIRECTION('',(0.,0.,-1.));
#222=DIRECTION('',(1.,-0.,0.));
#223=AXIS2_PLACEMENT_3D('',#220,#221,#222);
#224=CIRCLE('',#223,0.65);
#225=EDGE_CURVE('',#192,#219,#224,.T.);
#226=ORIENTED_EDGE('',*,*,#225,.T.);
#227=CARTESIAN_POINT('',(0.,0.,50.));
#228=DIRECTION('',(0.,0.,-1.));
#229=DIRECTION('',(1.,-0.,0.));
#230=AXIS2_PLACEMENT_3D('',#227,#228,#229);
#231=CIRCLE('',#230,0.65);
#232=EDGE_CURVE('',#219,#192,#231,.T.);
#233=ORIENTED_EDGE('',*,*,#232,.T.);
#234=EDGE_LOOP('',(#200,#209,#216,#217,#226,#233));
#235=FACE_BOUND('',#234,.T.);
#236=ADVANCED_FACE('',(#235),#190,.T.);
#237=CARTESIAN_POINT('',(0.,0.,-0.));
#238=DIRECTION('',(0.,0.,1.));
#239=DIRECTION('',(1.,-0.,0.));
#240=AXIS2_PLACEMENT_3D('',#237,#238,#239);
#241=CYLINDRICAL_SURFACE('',#240,0.28);
#242=CARTESIAN_POINT('',(-0.28,0.,50.));
#243=VERTEX_POINT('',#242);
#244=CARTESIAN_POINT('',(-0.28,0.,0.));
#245=VERTEX_POINT('',#244);
#246=CARTESIAN_POINT('',(-0.28,0.,50.));
#247=DIRECTION('',(-0.,-0.,-1.));
#248=VECTOR('',#247,50.);
#249=LINE('',#246,#248);
#250=EDGE_CURVE('',#243,#245,#249,.T.);
#251=ORIENTED_EDGE('',*,*,#250,.F.);
#252=CARTESIAN_POINT('',(0.28,-0.,50.));
#253=VERTEX_POINT('',#252);
#254=CARTESIAN_POINT('',(0.,0.,50.));
#255=DIRECTION('',(0.,0.,1.));
#256=DIRECTION('',(1.,-0.,0.));
#257=AXIS2_PLACEMENT_3D('',#254,#255,#256);
#258=CIRCLE('',#257,0.28);
#259=EDGE_CURVE('',#243,#253,#258,.T.);
#260=ORIENTED_EDGE('',*,*,#259,.T.);
#261=CARTESIAN_POINT('',(0.,0.,50.));
#262=DIRECTION('',(0.,0.,1.));
#263=DIRECTION('',(1.,-0.,0.));
#264=AXIS2_PLACEMENT_3D('',#261,#262,#263);
#265=CIRCLE('',#264,0.28);
#266=EDGE_CURVE('',#253,#243,#265,.T.);
#267=ORIENTED_EDGE('',*,*,#266,.T.);
#268=ORIENTED_EDGE('',*,*,#250,.T.);
#269=CARTESIAN_POINT('',(0.28,-0.,0.));
#270=VERTEX_POINT('',#269);
#271=CARTESIAN_POINT('',(0.,0.,-0.));
#272=DIRECTION('',(0.,0.,1.));
#273=DIRECTION('',(1.,-0.,0.));
#274=AXIS2_PLACEMENT_3D('',#271,#272,#273);
#275=CIRCLE('',#274,0.28);
#276=EDGE_CURVE('',#270,#245,#275,.T.);
#277=ORIENTED_EDGE('',*,*,#276,.F.);
#278=CARTESIAN_POINT('',(0.,0.,-0.));
#279=DIRECTION('',(0.,0.,1.));
#280=DIRECTION('',(1.,-0.,0.));
#281=AXIS2_PLACEMENT_3D('',#278,#279,#280);
#282=CIRCLE('',#281,0.28);
#283=EDGE_CURVE('',#245,#270,#282,.T.);
#284=ORIENTED_EDGE('',*,*,#283,.F.);
#285=EDGE_LOOP('',(#251,#260,#267,#268,#277,#284));
#286=FACE_BOUND('',#285,.T.);
#287=ADVANCED_FACE('',(#286),#241,.F.);
#288=CARTESIAN_POINT('',(0.,0.,50.));
#289=DIRECTION('',(0.,0.,1.));
#290=DIRECTION('',(1.,-0.,0.));
#291=AXIS2_PLACEMENT_3D('',#288,#289,#290);
#292=PLANE('',#291);
#293=ORIENTED_EDGE('',*,*,#259,.F.);
#294=ORIENTED_EDGE('',*,*,#266,.F.);
#295=EDGE_LOOP('',(#293,#294));
#296=FACE_BOUND('',#295,.T.);
#297=ORIENTED_EDGE('',*,*,#225,.F.);
#298=ORIENTED_EDGE('',*,*,#232,.F.);
#299=EDGE_LOOP('',(#297,#298));
#300=FACE_BOUND('',#299,.T.);
#301=ADVANCED_FACE('',(#296,#300),#292,.T.);
#302=CARTESIAN_POINT('',(0.,0.,0.));
#303=DIRECTION('',(0.,0.,1.));
#304=DIRECTION('',(1.,-0.,0.));
#305=AXIS2_PLACEMENT_3D('',#302,#303,#304);
#306=PLANE('',#305);
#307=ORIENTED_EDGE('',*,*,#276,.T.);
#308=ORIENTED_EDGE('',*,*,#283,.T.);
#309=EDGE_LOOP('',(#307,#308));
#310=FACE_BOUND('',#309,.T.);
#311=ORIENTED_EDGE('',*,*,#208,.F.);
#312=ORIENTED_EDGE('',*,*,#215,.F.);
#313=EDGE_LOOP('',(#311,#312));
#314=FACE_BOUND('',#313,.T.);
#315=ADVANCED_FACE('',(#310,#314),#306,.F.);
#316=CLOSED_SHELL('',(#236,#287,#301,#315));
#317=MANIFOLD_SOLID_BREP('alibrePartClosedBody',#316);
#318=COLOUR_RGB('',0.749019623,0.,0.749019623);
#319=FILL_AREA_STYLE_COLOUR('',#318);
#320=FILL_AREA_STYLE('',(#319));
#321=SURFACE_STYLE_FILL_AREA(#320);
#322=SURFACE_SIDE_STYLE('',(#321));
#323=SURFACE_STYLE_USAGE(.BOTH.,#322);
#324=PRESENTATION_STYLE_ASSIGNMENT((#323));
#185=STYLED_ITEM('',(#324),#317);
#325=CONTEXT_DEPENDENT_OVER_RIDING_STYLED_ITEM('',(#324),#166,#185,(#181));
#166=SHAPE_REPRESENTATION('370-1 Violet (Purple) Insulation 0.25mm2',(#15),#164);
#167=ADVANCED_BREP_SHAPE_REPRESENTATION('370-1 Violet (Purple) Insulation 0.25mm2',(#317),#164);
#333=SHAPE_REPRESENTATION_RELATIONSHIP('','',#166,#167);
#334=CARTESIAN_POINT('',(0.,0.,0.));
#335=DIRECTION('',(0.,0.,1.));
#336=DIRECTION('',(1.,0.,0.));
#337=AXIS2_PLACEMENT_3D('',#334,#335,#336);
#339=MAPPED_ITEM('',#338,#337);
#338=REPRESENTATION_MAP(#337,#166);
#174=PRODUCT('370-1 Violet (Purple) Insulation 0.25mm2','370-1 Violet (Purple) Insulation 0.25mm2','',(#152));
#340=PRODUCT_RELATED_PRODUCT_CATEGORY('part','',(#174));
#341=PRODUCT_DEFINITION_FORMATION_WITH_SPECIFIED_SOURCE('','',#174,.NOT_KNOWN.);
#175=PRODUCT_DEFINITION('design','',#341,#153);
#173=PRODUCT_DEFINITION_SHAPE('','',#175);
#342=SHAPE_DEFINITION_REPRESENTATION(#173,#166);
#165=DRAUGHTING_MODEL('',(#339),#164);
#16=SHAPE_REPRESENTATION('370 Single Conductor Wire Violet (Purple) 0,25mm\S\2, LiY,70\S\0C',(#15,#48,#179),#10);
#343=CARTESIAN_POINT('',(0.,0.,0.));
#344=DIRECTION('',(0.,0.,1.));
#345=DIRECTION('',(1.,0.,0.));
#346=AXIS2_PLACEMENT_3D('',#343,#344,#345);
#348=MAPPED_ITEM('',#347,#346);
#347=REPRESENTATION_MAP(#346,#16);
#24=PRODUCT('370 Single Conductor Wire Violet (Purple) 0,25mm\S\2, LiY,70\S\0C','370 Single Conductor Wire Violet (Purple) 0,25mm\S\2, LiY,70\S\0C','',(#152));
#349=PRODUCT_RELATED_PRODUCT_CATEGORY('part','',(#24));
#350=PRODUCT_DEFINITION_FORMATION_WITH_SPECIFIED_SOURCE('','',#24,.NOT_KNOWN.);
#25=PRODUCT_DEFINITION('design','',#350,#153);
#23=PRODUCT_DEFINITION_SHAPE('','',#25);
#351=SHAPE_DEFINITION_REPRESENTATION(#23,#16);
#11=DRAUGHTING_MODEL('',(#348),#10);
#1=MECHANICAL_DESIGN_GEOMETRIC_PRESENTATION_REPRESENTATION('',(#54,#135,#185,#325),#10);
ENDSEC;
END-ISO-10303-21;
