ISO-10303-21;
HEADER;

/* File generated by Alibre Version V28 */

FILE_DESCRIPTION(('HOOPS Exchange Step'),'2;1');

FILE_NAME('C:\\Users\\Gebruiker\\AppData\\Local\\Temp\\Alibre Design\\28.0.1.28098\\export-1FC21612-1567-4710-938D-0B5BDEB7C4D7.stp',
'2025-02-18T15:00:15+01:00',
('Engineering'),
('Alibre'),
'HOOPS Exchange 2024.3',
'Alibre',
'Unknown authorisation');

FILE_SCHEMA( ('AP242_MANAGED_MODEL_BASED_3D_ENGINEERING_MIM_LF {1 0 10303 442 1 1 4 }') );

ENDSEC;

DATA;
#3=(NAMED_UNIT(*)PLANE_ANGLE_UNIT()SI_UNIT($,.RADIAN.));
#4=PLANE_ANGLE_MEASURE_WITH_UNIT(PLANE_ANGLE_MEASURE(0.0174532925),#3);
#5=(CONVERSION_BASED_UNIT('DEGREE',#4)NAMED_UNIT(#6)PLANE_ANGLE_UNIT());
#6=DIMENSIONAL_EXPONENTS(0.,0.,0.,0.,0.,0.,0.);
#7=(NAMED_UNIT(*)SI_UNIT($,.STERADIAN.)SOLID_ANGLE_UNIT());
#8=(LENGTH_UNIT()NAMED_UNIT(*)SI_UNIT(.MILLI.,.METRE.));
#9=UNCERTAINTY_MEASURE_WITH_UNIT(LENGTH_MEASURE(1.000000E-06),#8,'DISTANCE_ACCURACY_VALUE','Maximum Tolerance applied to model');
#10=(GEOMETRIC_REPRESENTATION_CONTEXT(3)GLOBAL_UNCERTAINTY_ASSIGNED_CONTEXT((#9))GLOBAL_UNIT_ASSIGNED_CONTEXT((#8,#5,#7))REPRESENTATION_CONTEXT('','LAPP Wire spool DI=18mm DE=150mm W=80mm'));
#12=CARTESIAN_POINT('',(0.,0.,0.));
#13=DIRECTION('',(0.,0.,1.));
#14=DIRECTION('',(1.,0.,0.));
#15=AXIS2_PLACEMENT_3D('',#12,#13,#14);
#27=CARTESIAN_POINT('',(0.,0.,39.5));
#28=DIRECTION('',(0.,0.,1.));
#29=DIRECTION('',(1.,0.,-0.));
#30=AXIS2_PLACEMENT_3D('',#27,#28,#29);
#31=TOROIDAL_SURFACE('',#30,9.5,0.5);
#32=CARTESIAN_POINT('',(-9.,0.,39.5));
#33=VERTEX_POINT('',#32);
#34=CARTESIAN_POINT('',(-9.5,0.,40.));
#35=VERTEX_POINT('',#34);
#36=CARTESIAN_POINT('',(-9.5,0.,39.5));
#37=DIRECTION('',(-0.,-1.,-0.));
#38=DIRECTION('',(-1.,0.,0.));
#39=AXIS2_PLACEMENT_3D('',#36,#37,#38);
#40=CIRCLE('',#39,0.5);
#41=EDGE_CURVE('',#33,#35,#40,.T.);
#42=ORIENTED_EDGE('',*,*,#41,.T.);
#43=CARTESIAN_POINT('',(9.5,0.,40.));
#44=VERTEX_POINT('',#43);
#45=CARTESIAN_POINT('',(0.,0.,40.));
#46=DIRECTION('',(0.,0.,1.));
#47=DIRECTION('',(-1.,0.,0.));
#48=AXIS2_PLACEMENT_3D('',#45,#46,#47);
#49=CIRCLE('',#48,9.5);
#50=EDGE_CURVE('',#35,#44,#49,.T.);
#51=ORIENTED_EDGE('',*,*,#50,.T.);
#52=CARTESIAN_POINT('',(0.,0.,40.));
#53=DIRECTION('',(0.,0.,1.));
#54=DIRECTION('',(-1.,0.,0.));
#55=AXIS2_PLACEMENT_3D('',#52,#53,#54);
#56=CIRCLE('',#55,9.5);
#57=EDGE_CURVE('',#44,#35,#56,.T.);
#58=ORIENTED_EDGE('',*,*,#57,.T.);
#59=ORIENTED_EDGE('',*,*,#41,.F.);
#60=CARTESIAN_POINT('',(9.,-0.,39.5));
#61=VERTEX_POINT('',#60);
#62=CARTESIAN_POINT('',(0.,0.,39.5));
#63=DIRECTION('',(0.,0.,-1.));
#64=DIRECTION('',(-1.,0.,0.));
#65=AXIS2_PLACEMENT_3D('',#62,#63,#64);
#66=CIRCLE('',#65,9.);
#67=EDGE_CURVE('',#33,#61,#66,.T.);
#68=ORIENTED_EDGE('',*,*,#67,.T.);
#69=CARTESIAN_POINT('',(0.,0.,39.5));
#70=DIRECTION('',(0.,0.,-1.));
#71=DIRECTION('',(-1.,0.,0.));
#72=AXIS2_PLACEMENT_3D('',#69,#70,#71);
#73=CIRCLE('',#72,9.);
#74=EDGE_CURVE('',#61,#33,#73,.T.);
#75=ORIENTED_EDGE('',*,*,#74,.T.);
#76=EDGE_LOOP('',(#42,#51,#58,#59,#68,#75));
#77=FACE_BOUND('',#76,.T.);
#78=ADVANCED_FACE('',(#77),#31,.T.);
#79=CARTESIAN_POINT('',(0.,0.,-37.5));
#80=DIRECTION('',(0.,0.,1.));
#81=DIRECTION('',(1.,0.,-0.));
#82=AXIS2_PLACEMENT_3D('',#79,#80,#81);
#83=CYLINDRICAL_SURFACE('',#82,9.);
#84=CARTESIAN_POINT('',(-9.,-0.,-39.5));
#85=VERTEX_POINT('',#84);
#86=CARTESIAN_POINT('',(-9.,0.,39.5));
#87=DIRECTION('',(-0.,-0.,-1.));
#88=VECTOR('',#87,79.);
#89=LINE('',#86,#88);
#90=EDGE_CURVE('',#33,#85,#89,.T.);
#91=ORIENTED_EDGE('',*,*,#90,.F.);
#92=ORIENTED_EDGE('',*,*,#74,.F.);
#93=ORIENTED_EDGE('',*,*,#67,.F.);
#94=ORIENTED_EDGE('',*,*,#90,.T.);
#95=CARTESIAN_POINT('',(9.,0.,-39.5));
#96=VERTEX_POINT('',#95);
#97=CARTESIAN_POINT('',(0.,0.,-39.5));
#98=DIRECTION('',(0.,-0.,1.));
#99=DIRECTION('',(1.,0.,0.));
#100=AXIS2_PLACEMENT_3D('',#97,#98,#99);
#101=CIRCLE('',#100,9.);
#102=EDGE_CURVE('',#96,#85,#101,.T.);
#103=ORIENTED_EDGE('',*,*,#102,.F.);
#104=CARTESIAN_POINT('',(0.,0.,-39.5));
#105=DIRECTION('',(0.,-0.,1.));
#106=DIRECTION('',(1.,0.,0.));
#107=AXIS2_PLACEMENT_3D('',#104,#105,#106);
#108=CIRCLE('',#107,9.);
#109=EDGE_CURVE('',#85,#96,#108,.T.);
#110=ORIENTED_EDGE('',*,*,#109,.F.);
#111=EDGE_LOOP('',(#91,#92,#93,#94,#103,#110));
#112=FACE_BOUND('',#111,.T.);
#113=ADVANCED_FACE('',(#112),#83,.F.);
#114=CARTESIAN_POINT('',(0.,0.,40.));
#115=DIRECTION('',(0.,0.,1.));
#116=DIRECTION('',(1.,0.,0.));
#117=AXIS2_PLACEMENT_3D('',#114,#115,#116);
#118=PLANE('',#117);
#119=CARTESIAN_POINT('',(74.5,0.,40.));
#120=VERTEX_POINT('',#119);
#121=CARTESIAN_POINT('',(0.,0.,40.));
#122=DIRECTION('',(-0.,0.,-1.));
#123=DIRECTION('',(-1.,-0.,0.));
#124=AXIS2_PLACEMENT_3D('',#121,#122,#123);
#125=CIRCLE('',#124,74.5);
#126=EDGE_CURVE('',#120,#120,#125,.T.);
#127=ORIENTED_EDGE('',*,*,#126,.F.);
#128=EDGE_LOOP('',(#127));
#129=FACE_BOUND('',#128,.T.);
#130=ORIENTED_EDGE('',*,*,#50,.F.);
#131=ORIENTED_EDGE('',*,*,#57,.F.);
#132=EDGE_LOOP('',(#130,#131));
#133=FACE_BOUND('',#132,.T.);
#134=ADVANCED_FACE('',(#129,#133),#118,.T.);
#135=CARTESIAN_POINT('',(0.,0.,-39.5));
#136=DIRECTION('',(0.,0.,-1.));
#137=DIRECTION('',(-1.,0.,0.));
#138=AXIS2_PLACEMENT_3D('',#135,#136,#137);
#139=TOROIDAL_SURFACE('',#138,9.5,0.5);
#140=CARTESIAN_POINT('',(9.5,0.,-40.));
#141=VERTEX_POINT('',#140);
#142=CARTESIAN_POINT('',(9.5,0.,-39.5));
#143=DIRECTION('',(0.,-1.,-0.));
#144=DIRECTION('',(1.,0.,0.));
#145=AXIS2_PLACEMENT_3D('',#142,#143,#144);
#146=CIRCLE('',#145,0.5);
#147=EDGE_CURVE('',#96,#141,#146,.T.);
#148=ORIENTED_EDGE('',*,*,#147,.T.);
#149=CARTESIAN_POINT('',(-9.5,0.,-40.));
#150=VERTEX_POINT('',#149);
#151=CARTESIAN_POINT('',(0.,0.,-40.));
#152=DIRECTION('',(0.,0.,-1.));
#153=DIRECTION('',(1.,0.,0.));
#154=AXIS2_PLACEMENT_3D('',#151,#152,#153);
#155=CIRCLE('',#154,9.5);
#156=EDGE_CURVE('',#141,#150,#155,.T.);
#157=ORIENTED_EDGE('',*,*,#156,.T.);
#158=CARTESIAN_POINT('',(0.,0.,-40.));
#159=DIRECTION('',(0.,0.,-1.));
#160=DIRECTION('',(1.,0.,0.));
#161=AXIS2_PLACEMENT_3D('',#158,#159,#160);
#162=CIRCLE('',#161,9.5);
#163=EDGE_CURVE('',#150,#141,#162,.T.);
#164=ORIENTED_EDGE('',*,*,#163,.T.);
#165=ORIENTED_EDGE('',*,*,#147,.F.);
#166=ORIENTED_EDGE('',*,*,#102,.T.);
#167=ORIENTED_EDGE('',*,*,#109,.T.);
#168=EDGE_LOOP('',(#148,#157,#164,#165,#166,#167));
#169=FACE_BOUND('',#168,.T.);
#170=ADVANCED_FACE('',(#169),#139,.T.);
#171=CARTESIAN_POINT('',(0.,0.,-40.));
#172=DIRECTION('',(0.,0.,-1.));
#173=DIRECTION('',(-1.,0.,0.));
#174=AXIS2_PLACEMENT_3D('',#171,#172,#173);
#175=PLANE('',#174);
#176=CARTESIAN_POINT('',(-74.5,0.,-40.));
#177=VERTEX_POINT('',#176);
#178=CARTESIAN_POINT('',(0.,0.,-40.));
#179=DIRECTION('',(0.,0.,1.));
#180=DIRECTION('',(1.,-0.,0.));
#181=AXIS2_PLACEMENT_3D('',#178,#179,#180);
#182=CIRCLE('',#181,74.5);
#183=EDGE_CURVE('',#177,#177,#182,.T.);
#184=ORIENTED_EDGE('',*,*,#183,.F.);
#185=EDGE_LOOP('',(#184));
#186=FACE_BOUND('',#185,.T.);
#187=ORIENTED_EDGE('',*,*,#156,.F.);
#188=ORIENTED_EDGE('',*,*,#163,.F.);
#189=EDGE_LOOP('',(#187,#188));
#190=FACE_BOUND('',#189,.T.);
#191=ADVANCED_FACE('',(#186,#190),#175,.T.);
#192=CARTESIAN_POINT('',(0.,0.,-39.5));
#193=DIRECTION('',(0.,0.,1.));
#194=DIRECTION('',(1.,0.,-0.));
#195=AXIS2_PLACEMENT_3D('',#192,#193,#194);
#196=TOROIDAL_SURFACE('',#195,74.5,0.5);
#197=CARTESIAN_POINT('',(-75.,0.,-39.5));
#198=VERTEX_POINT('',#197);
#199=CARTESIAN_POINT('',(-74.5,0.,-39.5));
#200=DIRECTION('',(-0.,-1.,-0.));
#201=DIRECTION('',(-1.,0.,0.));
#202=AXIS2_PLACEMENT_3D('',#199,#200,#201);
#203=CIRCLE('',#202,0.5);
#204=EDGE_CURVE('',#198,#177,#203,.T.);
#205=ORIENTED_EDGE('',*,*,#204,.T.);
#206=ORIENTED_EDGE('',*,*,#183,.T.);
#207=ORIENTED_EDGE('',*,*,#204,.F.);
#208=CARTESIAN_POINT('',(75.,0.,-39.5));
#209=VERTEX_POINT('',#208);
#210=CARTESIAN_POINT('',(0.,0.,-39.5));
#211=DIRECTION('',(0.,0.,-1.));
#212=DIRECTION('',(1.,-0.,0.));
#213=AXIS2_PLACEMENT_3D('',#210,#211,#212);
#214=CIRCLE('',#213,75.);
#215=EDGE_CURVE('',#198,#209,#214,.T.);
#216=ORIENTED_EDGE('',*,*,#215,.T.);
#217=CARTESIAN_POINT('',(0.,0.,-39.5));
#218=DIRECTION('',(0.,0.,-1.));
#219=DIRECTION('',(1.,-0.,0.));
#220=AXIS2_PLACEMENT_3D('',#217,#218,#219);
#221=CIRCLE('',#220,75.);
#222=EDGE_CURVE('',#209,#198,#221,.T.);
#223=ORIENTED_EDGE('',*,*,#222,.T.);
#224=EDGE_LOOP('',(#205,#206,#207,#216,#223));
#225=FACE_BOUND('',#224,.T.);
#226=ADVANCED_FACE('',(#225),#196,.T.);
#227=CARTESIAN_POINT('',(0.,0.,-37.5));
#228=DIRECTION('',(0.,0.,-1.));
#229=DIRECTION('',(-1.,0.,0.));
#230=AXIS2_PLACEMENT_3D('',#227,#228,#229);
#231=CYLINDRICAL_SURFACE('',#230,75.);
#232=CARTESIAN_POINT('',(75.,0.,-38.));
#233=VERTEX_POINT('',#232);
#234=CARTESIAN_POINT('',(75.,0.,-39.5));
#235=DIRECTION('',(-0.,-0.,1.));
#236=VECTOR('',#235,1.5);
#237=LINE('',#234,#236);
#238=EDGE_CURVE('',#209,#233,#237,.T.);
#239=ORIENTED_EDGE('',*,*,#238,.T.);
#240=CARTESIAN_POINT('',(-75.,-0.,-38.));
#241=VERTEX_POINT('',#240);
#242=CARTESIAN_POINT('',(0.,0.,-38.));
#243=DIRECTION('',(0.,-0.,1.));
#244=DIRECTION('',(1.,0.,0.));
#245=AXIS2_PLACEMENT_3D('',#242,#243,#244);
#246=CIRCLE('',#245,75.);
#247=EDGE_CURVE('',#241,#233,#246,.T.);
#248=ORIENTED_EDGE('',*,*,#247,.F.);
#249=CARTESIAN_POINT('',(0.,0.,-38.));
#250=DIRECTION('',(0.,-0.,1.));
#251=DIRECTION('',(1.,0.,0.));
#252=AXIS2_PLACEMENT_3D('',#249,#250,#251);
#253=CIRCLE('',#252,75.);
#254=EDGE_CURVE('',#233,#241,#253,.T.);
#255=ORIENTED_EDGE('',*,*,#254,.F.);
#256=ORIENTED_EDGE('',*,*,#238,.F.);
#257=ORIENTED_EDGE('',*,*,#215,.F.);
#258=ORIENTED_EDGE('',*,*,#222,.F.);
#259=EDGE_LOOP('',(#239,#248,#255,#256,#257,#258));
#260=FACE_BOUND('',#259,.T.);
#261=ADVANCED_FACE('',(#260),#231,.T.);
#262=CARTESIAN_POINT('',(0.,0.,-38.));
#263=DIRECTION('',(0.,0.,-1.));
#264=DIRECTION('',(-1.,0.,0.));
#265=AXIS2_PLACEMENT_3D('',#262,#263,#264);
#266=TOROIDAL_SURFACE('',#265,74.5,0.5);
#267=CARTESIAN_POINT('',(74.5,0.,-37.5));
#268=VERTEX_POINT('',#267);
#269=CARTESIAN_POINT('',(74.5,0.,-38.));
#270=DIRECTION('',(0.,-1.,-0.));
#271=DIRECTION('',(1.,0.,0.));
#272=AXIS2_PLACEMENT_3D('',#269,#270,#271);
#273=CIRCLE('',#272,0.5);
#274=EDGE_CURVE('',#233,#268,#273,.T.);
#275=ORIENTED_EDGE('',*,*,#274,.T.);
#276=CARTESIAN_POINT('',(-74.5,0.,-37.5));
#277=VERTEX_POINT('',#276);
#278=CARTESIAN_POINT('',(0.,0.,-37.5));
#279=DIRECTION('',(0.,0.,-1.));
#280=DIRECTION('',(1.,0.,0.));
#281=AXIS2_PLACEMENT_3D('',#278,#279,#280);
#282=CIRCLE('',#281,74.5);
#283=EDGE_CURVE('',#268,#277,#282,.T.);
#284=ORIENTED_EDGE('',*,*,#283,.T.);
#285=CARTESIAN_POINT('',(0.,0.,-37.5));
#286=DIRECTION('',(0.,0.,-1.));
#287=DIRECTION('',(1.,0.,0.));
#288=AXIS2_PLACEMENT_3D('',#285,#286,#287);
#289=CIRCLE('',#288,74.5);
#290=EDGE_CURVE('',#277,#268,#289,.T.);
#291=ORIENTED_EDGE('',*,*,#290,.T.);
#292=ORIENTED_EDGE('',*,*,#274,.F.);
#293=ORIENTED_EDGE('',*,*,#254,.T.);
#294=ORIENTED_EDGE('',*,*,#247,.T.);
#295=EDGE_LOOP('',(#275,#284,#291,#292,#293,#294));
#296=FACE_BOUND('',#295,.T.);
#297=ADVANCED_FACE('',(#296),#266,.T.);
#298=CARTESIAN_POINT('',(0.,0.,-37.5));
#299=DIRECTION('',(0.,0.,-1.));
#300=DIRECTION('',(-1.,0.,0.));
#301=AXIS2_PLACEMENT_3D('',#298,#299,#300);
#302=PLANE('',#301);
#303=CARTESIAN_POINT('',(-25.5,0.,-37.5));
#304=VERTEX_POINT('',#303);
#305=CARTESIAN_POINT('',(25.5,0.,-37.5));
#306=VERTEX_POINT('',#305);
#307=CARTESIAN_POINT('',(0.,0.,-37.5));
#308=DIRECTION('',(0.,0.,1.));
#309=DIRECTION('',(-1.,0.,0.));
#310=AXIS2_PLACEMENT_3D('',#307,#308,#309);
#311=CIRCLE('',#310,25.5);
#312=EDGE_CURVE('',#304,#306,#311,.T.);
#313=ORIENTED_EDGE('',*,*,#312,.F.);
#314=CARTESIAN_POINT('',(0.,0.,-37.5));
#315=DIRECTION('',(0.,0.,1.));
#316=DIRECTION('',(-1.,0.,0.));
#317=AXIS2_PLACEMENT_3D('',#314,#315,#316);
#318=CIRCLE('',#317,25.5);
#319=EDGE_CURVE('',#306,#304,#318,.T.);
#320=ORIENTED_EDGE('',*,*,#319,.F.);
#321=EDGE_LOOP('',(#313,#320));
#322=FACE_BOUND('',#321,.T.);
#323=ORIENTED_EDGE('',*,*,#283,.F.);
#324=ORIENTED_EDGE('',*,*,#290,.F.);
#325=EDGE_LOOP('',(#323,#324));
#326=FACE_BOUND('',#325,.T.);
#327=ADVANCED_FACE('',(#322,#326),#302,.F.);
#328=CARTESIAN_POINT('',(0.,0.,-37.));
#329=DIRECTION('',(0.,0.,1.));
#330=DIRECTION('',(1.,0.,-0.));
#331=AXIS2_PLACEMENT_3D('',#328,#329,#330);
#332=TOROIDAL_SURFACE('',#331,25.5,0.5);
#333=CARTESIAN_POINT('',(-25.,0.,-37.));
#334=VERTEX_POINT('',#333);
#335=CARTESIAN_POINT('',(-25.5,0.,-37.));
#336=DIRECTION('',(-0.,-1.,-0.));
#337=DIRECTION('',(-1.,0.,0.));
#338=AXIS2_PLACEMENT_3D('',#335,#336,#337);
#339=CIRCLE('',#338,0.5);
#340=EDGE_CURVE('',#304,#334,#339,.T.);
#341=ORIENTED_EDGE('',*,*,#340,.F.);
#342=ORIENTED_EDGE('',*,*,#312,.T.);
#343=ORIENTED_EDGE('',*,*,#319,.T.);
#344=ORIENTED_EDGE('',*,*,#340,.T.);
#345=CARTESIAN_POINT('',(25.,-0.,-37.));
#346=VERTEX_POINT('',#345);
#347=CARTESIAN_POINT('',(0.,0.,-37.));
#348=DIRECTION('',(0.,0.,-1.));
#349=DIRECTION('',(-1.,0.,0.));
#350=AXIS2_PLACEMENT_3D('',#347,#348,#349);
#351=CIRCLE('',#350,25.);
#352=EDGE_CURVE('',#334,#346,#351,.T.);
#353=ORIENTED_EDGE('',*,*,#352,.T.);
#354=CARTESIAN_POINT('',(0.,0.,-37.));
#355=DIRECTION('',(0.,0.,-1.));
#356=DIRECTION('',(-1.,0.,0.));
#357=AXIS2_PLACEMENT_3D('',#354,#355,#356);
#358=CIRCLE('',#357,25.);
#359=EDGE_CURVE('',#346,#334,#358,.T.);
#360=ORIENTED_EDGE('',*,*,#359,.T.);
#361=EDGE_LOOP('',(#341,#342,#343,#344,#353,#360));
#362=FACE_BOUND('',#361,.T.);
#363=ADVANCED_FACE('',(#362),#332,.F.);
#364=CARTESIAN_POINT('',(0.,0.,-37.5));
#365=DIRECTION('',(0.,0.,1.));
#366=DIRECTION('',(1.,0.,-0.));
#367=AXIS2_PLACEMENT_3D('',#364,#365,#366);
#368=CYLINDRICAL_SURFACE('',#367,25.);
#369=CARTESIAN_POINT('',(-25.,0.,37.));
#370=VERTEX_POINT('',#369);
#371=CARTESIAN_POINT('',(-25.,0.,37.));
#372=DIRECTION('',(-0.,-0.,-1.));
#373=VECTOR('',#372,74.);
#374=LINE('',#371,#373);
#375=EDGE_CURVE('',#370,#334,#374,.T.);
#376=ORIENTED_EDGE('',*,*,#375,.T.);
#377=ORIENTED_EDGE('',*,*,#359,.F.);
#378=ORIENTED_EDGE('',*,*,#352,.F.);
#379=ORIENTED_EDGE('',*,*,#375,.F.);
#380=CARTESIAN_POINT('',(25.,0.,37.));
#381=VERTEX_POINT('',#380);
#382=CARTESIAN_POINT('',(0.,0.,37.));
#383=DIRECTION('',(0.,0.,1.));
#384=DIRECTION('',(-1.,-0.,0.));
#385=AXIS2_PLACEMENT_3D('',#382,#383,#384);
#386=CIRCLE('',#385,25.);
#387=EDGE_CURVE('',#381,#370,#386,.T.);
#388=ORIENTED_EDGE('',*,*,#387,.F.);
#389=CARTESIAN_POINT('',(0.,0.,37.));
#390=DIRECTION('',(0.,0.,1.));
#391=DIRECTION('',(-1.,-0.,0.));
#392=AXIS2_PLACEMENT_3D('',#389,#390,#391);
#393=CIRCLE('',#392,25.);
#394=EDGE_CURVE('',#370,#381,#393,.T.);
#395=ORIENTED_EDGE('',*,*,#394,.F.);
#396=EDGE_LOOP('',(#376,#377,#378,#379,#388,#395));
#397=FACE_BOUND('',#396,.T.);
#398=ADVANCED_FACE('',(#397),#368,.T.);
#399=CARTESIAN_POINT('',(0.,0.,37.));
#400=DIRECTION('',(0.,0.,-1.));
#401=DIRECTION('',(-1.,0.,0.));
#402=AXIS2_PLACEMENT_3D('',#399,#400,#401);
#403=TOROIDAL_SURFACE('',#402,25.5,0.5);
#404=CARTESIAN_POINT('',(25.5,0.,37.5));
#405=VERTEX_POINT('',#404);
#406=CARTESIAN_POINT('',(25.5,0.,37.));
#407=DIRECTION('',(0.,-1.,-0.));
#408=DIRECTION('',(1.,0.,0.));
#409=AXIS2_PLACEMENT_3D('',#406,#407,#408);
#410=CIRCLE('',#409,0.5);
#411=EDGE_CURVE('',#405,#381,#410,.T.);
#412=ORIENTED_EDGE('',*,*,#411,.F.);
#413=CARTESIAN_POINT('',(0.,0.,37.5));
#414=DIRECTION('',(-0.,0.,-1.));
#415=DIRECTION('',(-1.,-0.,0.));
#416=AXIS2_PLACEMENT_3D('',#413,#414,#415);
#417=CIRCLE('',#416,25.5);
#418=EDGE_CURVE('',#405,#405,#417,.T.);
#419=ORIENTED_EDGE('',*,*,#418,.T.);
#420=ORIENTED_EDGE('',*,*,#411,.T.);
#421=ORIENTED_EDGE('',*,*,#387,.T.);
#422=ORIENTED_EDGE('',*,*,#394,.T.);
#423=EDGE_LOOP('',(#412,#419,#420,#421,#422));
#424=FACE_BOUND('',#423,.T.);
#425=ADVANCED_FACE('',(#424),#403,.F.);
#426=CARTESIAN_POINT('',(0.,0.,37.5));
#427=DIRECTION('',(0.,0.,1.));
#428=DIRECTION('',(1.,0.,0.));
#429=AXIS2_PLACEMENT_3D('',#426,#427,#428);
#430=PLANE('',#429);
#431=CARTESIAN_POINT('',(-74.5,0.,37.5));
#432=VERTEX_POINT('',#431);
#433=CARTESIAN_POINT('',(74.5,0.,37.5));
#434=VERTEX_POINT('',#433);
#435=CARTESIAN_POINT('',(0.,0.,37.5));
#436=DIRECTION('',(0.,0.,1.));
#437=DIRECTION('',(-1.,0.,0.));
#438=AXIS2_PLACEMENT_3D('',#435,#436,#437);
#439=CIRCLE('',#438,74.5);
#440=EDGE_CURVE('',#432,#434,#439,.T.);
#441=ORIENTED_EDGE('',*,*,#440,.F.);
#442=CARTESIAN_POINT('',(0.,0.,37.5));
#443=DIRECTION('',(0.,0.,1.));
#444=DIRECTION('',(-1.,0.,0.));
#445=AXIS2_PLACEMENT_3D('',#442,#443,#444);
#446=CIRCLE('',#445,74.5);
#447=EDGE_CURVE('',#434,#432,#446,.T.);
#448=ORIENTED_EDGE('',*,*,#447,.F.);
#449=EDGE_LOOP('',(#441,#448));
#450=FACE_BOUND('',#449,.T.);
#451=ORIENTED_EDGE('',*,*,#418,.F.);
#452=EDGE_LOOP('',(#451));
#453=FACE_BOUND('',#452,.T.);
#454=ADVANCED_FACE('',(#450,#453),#430,.F.);
#455=CARTESIAN_POINT('',(0.,0.,38.));
#456=DIRECTION('',(0.,0.,1.));
#457=DIRECTION('',(1.,0.,-0.));
#458=AXIS2_PLACEMENT_3D('',#455,#456,#457);
#459=TOROIDAL_SURFACE('',#458,74.5,0.5);
#460=CARTESIAN_POINT('',(-75.,0.,38.));
#461=VERTEX_POINT('',#460);
#462=CARTESIAN_POINT('',(-74.5,0.,38.));
#463=DIRECTION('',(-0.,-1.,-0.));
#464=DIRECTION('',(-1.,0.,0.));
#465=AXIS2_PLACEMENT_3D('',#462,#463,#464);
#466=CIRCLE('',#465,0.5);
#467=EDGE_CURVE('',#461,#432,#466,.T.);
#468=ORIENTED_EDGE('',*,*,#467,.T.);
#469=ORIENTED_EDGE('',*,*,#440,.T.);
#470=ORIENTED_EDGE('',*,*,#447,.T.);
#471=ORIENTED_EDGE('',*,*,#467,.F.);
#472=CARTESIAN_POINT('',(75.,-0.,38.));
#473=VERTEX_POINT('',#472);
#474=CARTESIAN_POINT('',(0.,0.,38.));
#475=DIRECTION('',(0.,0.,-1.));
#476=DIRECTION('',(-1.,0.,0.));
#477=AXIS2_PLACEMENT_3D('',#474,#475,#476);
#478=CIRCLE('',#477,75.);
#479=EDGE_CURVE('',#461,#473,#478,.T.);
#480=ORIENTED_EDGE('',*,*,#479,.T.);
#481=CARTESIAN_POINT('',(0.,0.,38.));
#482=DIRECTION('',(0.,0.,-1.));
#483=DIRECTION('',(-1.,0.,0.));
#484=AXIS2_PLACEMENT_3D('',#481,#482,#483);
#485=CIRCLE('',#484,75.);
#486=EDGE_CURVE('',#473,#461,#485,.T.);
#487=ORIENTED_EDGE('',*,*,#486,.T.);
#488=EDGE_LOOP('',(#468,#469,#470,#471,#480,#487));
#489=FACE_BOUND('',#488,.T.);
#490=ADVANCED_FACE('',(#489),#459,.T.);
#491=CARTESIAN_POINT('',(0.,0.,37.5));
#492=DIRECTION('',(0.,0.,1.));
#493=DIRECTION('',(1.,0.,-0.));
#494=AXIS2_PLACEMENT_3D('',#491,#492,#493);
#495=CYLINDRICAL_SURFACE('',#494,75.);
#496=CARTESIAN_POINT('',(-75.,0.,39.5));
#497=VERTEX_POINT('',#496);
#498=CARTESIAN_POINT('',(-75.,0.,39.5));
#499=DIRECTION('',(-0.,-0.,-1.));
#500=VECTOR('',#499,1.5);
#501=LINE('',#498,#500);
#502=EDGE_CURVE('',#497,#461,#501,.T.);
#503=ORIENTED_EDGE('',*,*,#502,.T.);
#504=ORIENTED_EDGE('',*,*,#486,.F.);
#505=ORIENTED_EDGE('',*,*,#479,.F.);
#506=ORIENTED_EDGE('',*,*,#502,.F.);
#507=CARTESIAN_POINT('',(75.,0.,39.5));
#508=VERTEX_POINT('',#507);
#509=CARTESIAN_POINT('',(0.,0.,39.5));
#510=DIRECTION('',(0.,0.,1.));
#511=DIRECTION('',(-1.,-0.,0.));
#512=AXIS2_PLACEMENT_3D('',#509,#510,#511);
#513=CIRCLE('',#512,75.);
#514=EDGE_CURVE('',#508,#497,#513,.T.);
#515=ORIENTED_EDGE('',*,*,#514,.F.);
#516=CARTESIAN_POINT('',(0.,0.,39.5));
#517=DIRECTION('',(0.,0.,1.));
#518=DIRECTION('',(-1.,-0.,0.));
#519=AXIS2_PLACEMENT_3D('',#516,#517,#518);
#520=CIRCLE('',#519,75.);
#521=EDGE_CURVE('',#497,#508,#520,.T.);
#522=ORIENTED_EDGE('',*,*,#521,.F.);
#523=EDGE_LOOP('',(#503,#504,#505,#506,#515,#522));
#524=FACE_BOUND('',#523,.T.);
#525=ADVANCED_FACE('',(#524),#495,.T.);
#526=CARTESIAN_POINT('',(0.,0.,39.5));
#527=DIRECTION('',(0.,0.,-1.));
#528=DIRECTION('',(-1.,0.,0.));
#529=AXIS2_PLACEMENT_3D('',#526,#527,#528);
#530=TOROIDAL_SURFACE('',#529,74.5,0.5);
#531=CARTESIAN_POINT('',(74.5,0.,39.5));
#532=DIRECTION('',(0.,-1.,-0.));
#533=DIRECTION('',(1.,0.,0.));
#534=AXIS2_PLACEMENT_3D('',#531,#532,#533);
#535=CIRCLE('',#534,0.5);
#536=EDGE_CURVE('',#508,#120,#535,.T.);
#537=ORIENTED_EDGE('',*,*,#536,.T.);
#538=ORIENTED_EDGE('',*,*,#126,.T.);
#539=ORIENTED_EDGE('',*,*,#536,.F.);
#540=ORIENTED_EDGE('',*,*,#514,.T.);
#541=ORIENTED_EDGE('',*,*,#521,.T.);
#542=EDGE_LOOP('',(#537,#538,#539,#540,#541));
#543=FACE_BOUND('',#542,.T.);
#544=ADVANCED_FACE('',(#543),#530,.T.);
#545=CLOSED_SHELL('',(#78,#113,#134,#170,#191,#226,#261,#297,#327,#363,#398,#425,#454,#490,#525,#544));
#546=MANIFOLD_SOLID_BREP('alibrePartClosedBody',#545);
#547=COLOUR_RGB('',1.,0.501960814,0.);
#548=FILL_AREA_STYLE_COLOUR('',#547);
#549=FILL_AREA_STYLE('',(#548));
#550=SURFACE_STYLE_FILL_AREA(#549);
#551=SURFACE_SIDE_STYLE('',(#550));
#552=SURFACE_STYLE_USAGE(.BOTH.,#551);
#553=PRESENTATION_STYLE_ASSIGNMENT((#552));
#26=STYLED_ITEM('',(#553),#546);
#16=SHAPE_REPRESENTATION('LAPP Wire spool DI=18mm DE=150mm W=80mm',(#15),#10);
#17=ADVANCED_BREP_SHAPE_REPRESENTATION('LAPP Wire spool DI=18mm DE=150mm W=80mm',(#546),#10);
#561=SHAPE_REPRESENTATION_RELATIONSHIP('','',#16,#17);
#562=CARTESIAN_POINT('',(0.,0.,0.));
#563=DIRECTION('',(0.,0.,1.));
#564=DIRECTION('',(1.,0.,0.));
#565=AXIS2_PLACEMENT_3D('',#562,#563,#564);
#567=MAPPED_ITEM('',#566,#565);
#566=REPRESENTATION_MAP(#565,#16);
#568=APPLICATION_CONTEXT('Managed model based 3d engineering');
#569=APPLICATION_PROTOCOL_DEFINITION('international standard','ap242_managed_model_based_3d_engineering',2013,#568);
#570=PRODUCT_CONTEXT('',#568,'mechanical');
#571=PRODUCT_DEFINITION_CONTEXT('part definition',#568,'design');
#24=PRODUCT('LAPP Wire spool DI=18mm DE=150mm W=80mm','LAPP Wire spool DI=18mm DE=150mm W=80mm','',(#570));
#572=PRODUCT_RELATED_PRODUCT_CATEGORY('part','',(#24));
#573=PRODUCT_DEFINITION_FORMATION_WITH_SPECIFIED_SOURCE('','',#24,.NOT_KNOWN.);
#25=PRODUCT_DEFINITION('design','',#573,#571);
#23=PRODUCT_DEFINITION_SHAPE('','',#25);
#574=SHAPE_DEFINITION_REPRESENTATION(#23,#16);
#11=DRAUGHTING_MODEL('',(#567),#10);
#1=MECHANICAL_DESIGN_GEOMETRIC_PRESENTATION_REPRESENTATION('',(#26),#10);
ENDSEC;
END-ISO-10303-21;
