ISO-10303-21;
HEADER;
/* Generated by software containing ST-Developer
 * from STEP Tools, Inc. (www.steptools.com) 
 */

FILE_DESCRIPTION(
/* description */ ('Alibre Inc.'),
/* implementation_level */ '2;1');

FILE_NAME(
/* name */ 'export-F9AF842C-E741-4EA0-ABA2-0FAF814BEBBF',
/* time_stamp */ '2019-11-16T16:19:12+01:00',
/* author */ (''),
/* organization */ (''),
/* preprocessor_version */ 'ST-DEVELOPER v17',
/* originating_system */ 'Alibre',
/* authorisation */ '');

FILE_SCHEMA (('AUTOMOTIVE_DESIGN'));
ENDSEC;

DATA;
#10=STYLED_ITEM('NAME_0',(#34),#390);
#11=STYLED_ITEM('NAME_0',(#35),#239);
#12=STYLED_ITEM('NAME_0',(#35),#240);
#13=STYLED_ITEM('NAME_0',(#35),#241);
#14=STYLED_ITEM('NAME_0',(#35),#242);
#15=STYLED_ITEM('NAME_0',(#35),#243);
#16=STYLED_ITEM('NAME_0',(#35),#244);
#17=STYLED_ITEM('NAME_0',(#35),#245);
#18=STYLED_ITEM('NAME_0',(#35),#246);
#19=STYLED_ITEM('NAME_0',(#35),#247);
#20=STYLED_ITEM('NAME_0',(#35),#248);
#21=MECHANICAL_DESIGN_GEOMETRIC_PRESENTATION_REPRESENTATION('NAME_0',(#10,
#11,#12,#13,#14,#15,#16,#17,#18,#19,#20),#50);
#22=COLOUR_RGB('',0.882352941176471,0.882352941176471,0.882352941176471);
#23=COLOUR_RGB('',0.686274509803922,0.686274509803922,0.686274509803922);
#24=FILL_AREA_STYLE_COLOUR('NAME_0',#22);
#25=FILL_AREA_STYLE_COLOUR('NAME_0',#23);
#26=FILL_AREA_STYLE('NAME_0',(#24));
#27=FILL_AREA_STYLE('NAME_0',(#25));
#28=SURFACE_STYLE_FILL_AREA(#26);
#29=SURFACE_STYLE_FILL_AREA(#27);
#30=SURFACE_SIDE_STYLE('NAME_0',(#28));
#31=SURFACE_SIDE_STYLE('NAME_0',(#29));
#32=SURFACE_STYLE_USAGE(.POSITIVE.,#30);
#33=SURFACE_STYLE_USAGE(.POSITIVE.,#31);
#34=PRESENTATION_STYLE_ASSIGNMENT((#32));
#35=PRESENTATION_STYLE_ASSIGNMENT((#33));
#36=PRODUCT_DEFINITION_CONTEXT('part definition',#43,'design');
#37=SHAPE_DEFINITION_REPRESENTATION(#38,#391);
#38=PRODUCT_DEFINITION_SHAPE('PRODUCT_VERSION_ID',
'PRODUCT_VERSION_DESCR',#39);
#39=PRODUCT_DEFINITION('PRODUCT_VERSION_ID','PRODUCT_VERSION_DESCR',#40,
#36);
#40=PRODUCT_DEFINITION_FORMATION_WITH_SPECIFIED_SOURCE(
'PRODUCT_VERSION_ID','PRODUCT_VERSION_DESCR',#45,.MADE.);
#41=PRODUCT_RELATED_PRODUCT_CATEGORY('part','part',(#45));
#42=APPLICATION_PROTOCOL_DEFINITION('Draft International Standard',
'automotive_design',1994,#43);
#43=APPLICATION_CONTEXT('automotive_Design');
#44=PRODUCT_CONTEXT('3D Mechanical Parts',#43,'mechanical');
#45=PRODUCT('','4133 PHK15-4 Adapterplate','',(#44));
#46=(
LENGTH_UNIT()
NAMED_UNIT(*)
SI_UNIT(.MILLI.,.METRE.)
);
#47=(
NAMED_UNIT(*)
PLANE_ANGLE_UNIT()
SI_UNIT($,.RADIAN.)
);
#48=(
NAMED_UNIT(*)
SI_UNIT($,.STERADIAN.)
SOLID_ANGLE_UNIT()
);
#49=UNCERTAINTY_MEASURE_WITH_UNIT(LENGTH_MEASURE(1.E-6),#46,
'DISTANCE_ACCURACY_VALUE',
'Maximum model space distance between geometric entities at asserted c
onnectivities');
#50=(
GEOMETRIC_REPRESENTATION_CONTEXT(3)
GLOBAL_UNCERTAINTY_ASSIGNED_CONTEXT((#49))
GLOBAL_UNIT_ASSIGNED_CONTEXT((#48,#47,#46))
REPRESENTATION_CONTEXT('ID1','3D')
);
#51=CYLINDRICAL_SURFACE('',#254,2.5);
#52=CYLINDRICAL_SURFACE('',#257,2.5);
#53=CYLINDRICAL_SURFACE('',#267,2.5);
#54=CYLINDRICAL_SURFACE('',#268,2.5);
#55=VECTOR('',#280,1.);
#56=VECTOR('',#281,1.);
#57=VECTOR('',#282,1.);
#58=VECTOR('',#283,1.);
#59=VECTOR('',#286,1.);
#60=VECTOR('',#293,1.);
#61=VECTOR('',#299,1.);
#62=VECTOR('',#300,1.);
#63=VECTOR('',#301,1.);
#64=VECTOR('',#303,1.);
#65=VECTOR('',#304,1.);
#66=VECTOR('',#314,1.);
#67=VECTOR('',#315,1.);
#68=VECTOR('',#318,1.);
#69=VECTOR('',#321,1.);
#70=VECTOR('',#323,1.);
#71=LINE('',#334,#55);
#72=LINE('',#337,#56);
#73=LINE('',#339,#57);
#74=LINE('',#341,#58);
#75=LINE('',#343,#59);
#76=LINE('',#349,#60);
#77=LINE('',#355,#61);
#78=LINE('',#357,#62);
#79=LINE('',#359,#63);
#80=LINE('',#361,#64);
#81=LINE('',#363,#65);
#82=LINE('',#373,#66);
#83=LINE('',#375,#67);
#84=LINE('',#377,#68);
#85=LINE('',#379,#69);
#86=LINE('',#381,#70);
#87=VERTEX_POINT('',#327);
#88=VERTEX_POINT('',#329);
#89=VERTEX_POINT('',#331);
#90=VERTEX_POINT('',#333);
#91=VERTEX_POINT('',#335);
#92=VERTEX_POINT('',#336);
#93=VERTEX_POINT('',#338);
#94=VERTEX_POINT('',#340);
#95=VERTEX_POINT('',#344);
#96=VERTEX_POINT('',#346);
#97=VERTEX_POINT('',#350);
#98=VERTEX_POINT('',#352);
#99=VERTEX_POINT('',#356);
#100=VERTEX_POINT('',#358);
#101=VERTEX_POINT('',#362);
#102=VERTEX_POINT('',#366);
#103=VERTEX_POINT('',#367);
#104=VERTEX_POINT('',#370);
#105=VERTEX_POINT('',#371);
#106=VERTEX_POINT('',#374);
#107=CIRCLE('',#250,2.5);
#108=CIRCLE('',#251,2.5);
#109=CIRCLE('',#252,2.5);
#110=CIRCLE('',#253,2.5);
#111=CIRCLE('',#255,2.5);
#112=CIRCLE('',#256,2.5);
#113=CIRCLE('',#258,2.5);
#114=CIRCLE('',#259,2.5);
#115=CIRCLE('',#263,2.5);
#116=CIRCLE('',#264,2.5);
#117=CIRCLE('',#265,2.5);
#118=CIRCLE('',#266,2.5);
#119=EDGE_CURVE('',#87,#87,#107,.T.);
#120=EDGE_CURVE('',#88,#88,#108,.T.);
#121=EDGE_CURVE('',#89,#89,#109,.T.);
#122=EDGE_CURVE('',#90,#90,#110,.T.);
#123=EDGE_CURVE('',#91,#92,#71,.T.);
#124=EDGE_CURVE('',#93,#92,#72,.T.);
#125=EDGE_CURVE('',#94,#93,#73,.T.);
#126=EDGE_CURVE('',#94,#91,#74,.T.);
#127=EDGE_CURVE('',#90,#95,#75,.T.);
#128=EDGE_CURVE('',#95,#96,#111,.T.);
#129=EDGE_CURVE('',#96,#95,#112,.T.);
#130=EDGE_CURVE('',#89,#97,#76,.T.);
#131=EDGE_CURVE('',#97,#98,#113,.T.);
#132=EDGE_CURVE('',#98,#97,#114,.T.);
#133=EDGE_CURVE('',#92,#99,#77,.T.);
#134=EDGE_CURVE('',#100,#91,#78,.T.);
#135=EDGE_CURVE('',#99,#100,#79,.T.);
#136=EDGE_CURVE('',#101,#99,#80,.T.);
#137=EDGE_CURVE('',#93,#101,#81,.T.);
#138=EDGE_CURVE('',#102,#103,#115,.T.);
#139=EDGE_CURVE('',#103,#102,#116,.T.);
#140=EDGE_CURVE('',#104,#105,#117,.T.);
#141=EDGE_CURVE('',#105,#104,#118,.T.);
#142=EDGE_CURVE('',#106,#100,#82,.T.);
#143=EDGE_CURVE('',#101,#106,#83,.T.);
#144=EDGE_CURVE('',#88,#104,#84,.T.);
#145=EDGE_CURVE('',#87,#102,#85,.T.);
#146=EDGE_CURVE('',#106,#94,#86,.T.);
#147=ORIENTED_EDGE('',*,*,#119,.F.);
#148=ORIENTED_EDGE('',*,*,#120,.F.);
#149=ORIENTED_EDGE('',*,*,#121,.F.);
#150=ORIENTED_EDGE('',*,*,#122,.F.);
#151=ORIENTED_EDGE('',*,*,#123,.T.);
#152=ORIENTED_EDGE('',*,*,#124,.F.);
#153=ORIENTED_EDGE('',*,*,#125,.F.);
#154=ORIENTED_EDGE('',*,*,#126,.T.);
#155=ORIENTED_EDGE('',*,*,#127,.F.);
#156=ORIENTED_EDGE('',*,*,#122,.T.);
#157=ORIENTED_EDGE('',*,*,#127,.T.);
#158=ORIENTED_EDGE('',*,*,#128,.T.);
#159=ORIENTED_EDGE('',*,*,#129,.T.);
#160=ORIENTED_EDGE('',*,*,#130,.F.);
#161=ORIENTED_EDGE('',*,*,#121,.T.);
#162=ORIENTED_EDGE('',*,*,#130,.T.);
#163=ORIENTED_EDGE('',*,*,#131,.T.);
#164=ORIENTED_EDGE('',*,*,#132,.T.);
#165=ORIENTED_EDGE('',*,*,#133,.F.);
#166=ORIENTED_EDGE('',*,*,#123,.F.);
#167=ORIENTED_EDGE('',*,*,#134,.F.);
#168=ORIENTED_EDGE('',*,*,#135,.F.);
#169=ORIENTED_EDGE('',*,*,#133,.T.);
#170=ORIENTED_EDGE('',*,*,#136,.F.);
#171=ORIENTED_EDGE('',*,*,#137,.F.);
#172=ORIENTED_EDGE('',*,*,#124,.T.);
#173=ORIENTED_EDGE('',*,*,#138,.F.);
#174=ORIENTED_EDGE('',*,*,#139,.F.);
#175=ORIENTED_EDGE('',*,*,#140,.F.);
#176=ORIENTED_EDGE('',*,*,#141,.F.);
#177=ORIENTED_EDGE('',*,*,#131,.F.);
#178=ORIENTED_EDGE('',*,*,#132,.F.);
#179=ORIENTED_EDGE('',*,*,#128,.F.);
#180=ORIENTED_EDGE('',*,*,#129,.F.);
#181=ORIENTED_EDGE('',*,*,#135,.T.);
#182=ORIENTED_EDGE('',*,*,#142,.F.);
#183=ORIENTED_EDGE('',*,*,#143,.F.);
#184=ORIENTED_EDGE('',*,*,#136,.T.);
#185=ORIENTED_EDGE('',*,*,#144,.F.);
#186=ORIENTED_EDGE('',*,*,#120,.T.);
#187=ORIENTED_EDGE('',*,*,#144,.T.);
#188=ORIENTED_EDGE('',*,*,#140,.T.);
#189=ORIENTED_EDGE('',*,*,#141,.T.);
#190=ORIENTED_EDGE('',*,*,#145,.F.);
#191=ORIENTED_EDGE('',*,*,#119,.T.);
#192=ORIENTED_EDGE('',*,*,#145,.T.);
#193=ORIENTED_EDGE('',*,*,#138,.T.);
#194=ORIENTED_EDGE('',*,*,#139,.T.);
#195=ORIENTED_EDGE('',*,*,#134,.T.);
#196=ORIENTED_EDGE('',*,*,#126,.F.);
#197=ORIENTED_EDGE('',*,*,#146,.F.);
#198=ORIENTED_EDGE('',*,*,#142,.T.);
#199=ORIENTED_EDGE('',*,*,#137,.T.);
#200=ORIENTED_EDGE('',*,*,#143,.T.);
#201=ORIENTED_EDGE('',*,*,#146,.T.);
#202=ORIENTED_EDGE('',*,*,#125,.T.);
#203=EDGE_LOOP('',(#147));
#204=EDGE_LOOP('',(#148));
#205=EDGE_LOOP('',(#149));
#206=EDGE_LOOP('',(#150));
#207=EDGE_LOOP('',(#151,#152,#153,#154));
#208=EDGE_LOOP('',(#155,#156,#157,#158,#159));
#209=EDGE_LOOP('',(#160,#161,#162,#163,#164));
#210=EDGE_LOOP('',(#165,#166,#167,#168));
#211=EDGE_LOOP('',(#169,#170,#171,#172));
#212=EDGE_LOOP('',(#173,#174));
#213=EDGE_LOOP('',(#175,#176));
#214=EDGE_LOOP('',(#177,#178));
#215=EDGE_LOOP('',(#179,#180));
#216=EDGE_LOOP('',(#181,#182,#183,#184));
#217=EDGE_LOOP('',(#185,#186,#187,#188,#189));
#218=EDGE_LOOP('',(#190,#191,#192,#193,#194));
#219=EDGE_LOOP('',(#195,#196,#197,#198));
#220=EDGE_LOOP('',(#199,#200,#201,#202));
#221=FACE_BOUND('',#203,.T.);
#222=FACE_BOUND('',#204,.T.);
#223=FACE_BOUND('',#205,.T.);
#224=FACE_BOUND('',#206,.T.);
#225=FACE_BOUND('',#207,.T.);
#226=FACE_BOUND('',#208,.T.);
#227=FACE_BOUND('',#209,.T.);
#228=FACE_BOUND('',#210,.T.);
#229=FACE_BOUND('',#211,.T.);
#230=FACE_BOUND('',#212,.T.);
#231=FACE_BOUND('',#213,.T.);
#232=FACE_BOUND('',#214,.T.);
#233=FACE_BOUND('',#215,.T.);
#234=FACE_BOUND('',#216,.T.);
#235=FACE_BOUND('',#217,.T.);
#236=FACE_BOUND('',#218,.T.);
#237=FACE_BOUND('',#219,.T.);
#238=FACE_BOUND('',#220,.T.);
#239=ADVANCED_FACE('',(#221,#222,#223,#224,#225),#383,.F.);
#240=ADVANCED_FACE('',(#226),#51,.F.);
#241=ADVANCED_FACE('',(#227),#52,.F.);
#242=ADVANCED_FACE('',(#228),#384,.F.);
#243=ADVANCED_FACE('',(#229),#385,.F.);
#244=ADVANCED_FACE('',(#230,#231,#232,#233,#234),#386,.F.);
#245=ADVANCED_FACE('',(#235),#53,.F.);
#246=ADVANCED_FACE('',(#236),#54,.F.);
#247=ADVANCED_FACE('',(#237),#387,.F.);
#248=ADVANCED_FACE('',(#238),#388,.T.);
#249=AXIS2_PLACEMENT_3D('',#325,#271,$);
#250=AXIS2_PLACEMENT_3D('',#326,#272,#273);
#251=AXIS2_PLACEMENT_3D('',#328,#274,#275);
#252=AXIS2_PLACEMENT_3D('',#330,#276,#277);
#253=AXIS2_PLACEMENT_3D('',#332,#278,#279);
#254=AXIS2_PLACEMENT_3D('',#342,#284,#285);
#255=AXIS2_PLACEMENT_3D('',#345,#287,#288);
#256=AXIS2_PLACEMENT_3D('',#347,#289,#290);
#257=AXIS2_PLACEMENT_3D('',#348,#291,#292);
#258=AXIS2_PLACEMENT_3D('',#351,#294,#295);
#259=AXIS2_PLACEMENT_3D('',#353,#296,#297);
#260=AXIS2_PLACEMENT_3D('',#354,#298,$);
#261=AXIS2_PLACEMENT_3D('',#360,#302,$);
#262=AXIS2_PLACEMENT_3D('',#364,#305,$);
#263=AXIS2_PLACEMENT_3D('',#365,#306,#307);
#264=AXIS2_PLACEMENT_3D('',#368,#308,#309);
#265=AXIS2_PLACEMENT_3D('',#369,#310,#311);
#266=AXIS2_PLACEMENT_3D('',#372,#312,#313);
#267=AXIS2_PLACEMENT_3D('',#376,#316,#317);
#268=AXIS2_PLACEMENT_3D('',#378,#319,#320);
#269=AXIS2_PLACEMENT_3D('',#380,#322,$);
#270=AXIS2_PLACEMENT_3D('',#382,#324,$);
#271=DIRECTION('',(0.,-1.,0.));
#272=DIRECTION('',(0.,1.,0.));
#273=DIRECTION('',(0.,0.,-2.5));
#274=DIRECTION('',(0.,1.,0.));
#275=DIRECTION('',(0.,0.,-2.5));
#276=DIRECTION('',(0.,1.,0.));
#277=DIRECTION('',(0.,0.,-2.5));
#278=DIRECTION('',(0.,1.,0.));
#279=DIRECTION('',(0.,0.,-2.5));
#280=DIRECTION('',(0.,0.,1.));
#281=DIRECTION('',(-1.,0.,0.));
#282=DIRECTION('',(0.,0.,1.));
#283=DIRECTION('',(-1.,0.,0.));
#284=DIRECTION('',(0.,1.,0.));
#285=DIRECTION('',(0.,0.,-2.5));
#286=DIRECTION('',(0.,-1.,0.));
#287=DIRECTION('',(0.,-1.,0.));
#288=DIRECTION('',(0.,0.,2.5));
#289=DIRECTION('',(0.,-1.,0.));
#290=DIRECTION('',(0.,0.,2.5));
#291=DIRECTION('',(0.,1.,0.));
#292=DIRECTION('',(0.,0.,-2.5));
#293=DIRECTION('',(0.,-1.,0.));
#294=DIRECTION('',(0.,-1.,0.));
#295=DIRECTION('',(0.,0.,2.5));
#296=DIRECTION('',(0.,-1.,0.));
#297=DIRECTION('',(0.,0.,2.5));
#298=DIRECTION('',(1.,0.,0.));
#299=DIRECTION('',(0.,-1.,0.));
#300=DIRECTION('',(0.,1.,0.));
#301=DIRECTION('',(0.,0.,-1.));
#302=DIRECTION('',(0.,0.,-1.));
#303=DIRECTION('',(-1.,0.,0.));
#304=DIRECTION('',(0.,-1.,0.));
#305=DIRECTION('',(0.,1.,0.));
#306=DIRECTION('',(0.,-1.,0.));
#307=DIRECTION('',(0.,0.,2.5));
#308=DIRECTION('',(0.,-1.,0.));
#309=DIRECTION('',(0.,0.,2.5));
#310=DIRECTION('',(0.,-1.,0.));
#311=DIRECTION('',(0.,0.,2.5));
#312=DIRECTION('',(0.,-1.,0.));
#313=DIRECTION('',(0.,0.,2.5));
#314=DIRECTION('',(-1.,0.,0.));
#315=DIRECTION('',(0.,0.,-1.));
#316=DIRECTION('',(0.,1.,0.));
#317=DIRECTION('',(0.,0.,-2.5));
#318=DIRECTION('',(0.,-1.,0.));
#319=DIRECTION('',(0.,1.,0.));
#320=DIRECTION('',(0.,0.,-2.5));
#321=DIRECTION('',(0.,-1.,0.));
#322=DIRECTION('',(0.,0.,1.));
#323=DIRECTION('',(0.,1.,0.));
#324=DIRECTION('',(1.,0.,0.));
#325=CARTESIAN_POINT('',(12.,4.,-23.5));
#326=CARTESIAN_POINT('',(-8.5,4.,-8.5));
#327=CARTESIAN_POINT('',(-8.5,4.,-11.));
#328=CARTESIAN_POINT('',(8.5,4.,-8.5));
#329=CARTESIAN_POINT('',(8.5,4.,-11.));
#330=CARTESIAN_POINT('',(-8.5,4.,8.5));
#331=CARTESIAN_POINT('',(-8.5,4.,6.));
#332=CARTESIAN_POINT('',(8.5,4.,8.5));
#333=CARTESIAN_POINT('',(8.5,4.,6.));
#334=CARTESIAN_POINT('',(-12.,4.,-23.5));
#335=CARTESIAN_POINT('',(-12.,4.,-23.5));
#336=CARTESIAN_POINT('',(-12.,4.,23.5));
#337=CARTESIAN_POINT('',(12.,4.,23.5));
#338=CARTESIAN_POINT('',(12.,4.,23.5));
#339=CARTESIAN_POINT('',(12.,4.,-23.5));
#340=CARTESIAN_POINT('',(12.,4.,-23.5));
#341=CARTESIAN_POINT('',(12.,4.,-23.5));
#342=CARTESIAN_POINT('',(8.5,-0.100000000000001,8.5));
#343=CARTESIAN_POINT('',(8.5,4.1,6.));
#344=CARTESIAN_POINT('',(8.5,2.08166817117217E-16,6.));
#345=CARTESIAN_POINT('',(8.5,0.,8.5));
#346=CARTESIAN_POINT('',(8.5,0.,11.));
#347=CARTESIAN_POINT('',(8.5,0.,8.5));
#348=CARTESIAN_POINT('',(-8.5,-0.100000000000001,8.5));
#349=CARTESIAN_POINT('',(-8.5,4.1,6.));
#350=CARTESIAN_POINT('',(-8.5,2.08166817117217E-16,6.));
#351=CARTESIAN_POINT('',(-8.5,0.,8.5));
#352=CARTESIAN_POINT('',(-8.5,0.,11.));
#353=CARTESIAN_POINT('',(-8.5,0.,8.5));
#354=CARTESIAN_POINT('',(-12.,0.,0.));
#355=CARTESIAN_POINT('',(-12.,4.,23.5));
#356=CARTESIAN_POINT('',(-12.,0.,23.5));
#357=CARTESIAN_POINT('',(-12.,0.,-23.5));
#358=CARTESIAN_POINT('',(-12.,0.,-23.5));
#359=CARTESIAN_POINT('',(-12.,0.,23.5));
#360=CARTESIAN_POINT('',(12.,4.,23.5));
#361=CARTESIAN_POINT('',(12.,0.,23.5));
#362=CARTESIAN_POINT('',(12.,0.,23.5));
#363=CARTESIAN_POINT('',(12.,4.,23.5));
#364=CARTESIAN_POINT('',(12.,0.,23.5));
#365=CARTESIAN_POINT('',(-8.5,0.,-8.5));
#366=CARTESIAN_POINT('',(-8.5,2.08166817117217E-16,-11.));
#367=CARTESIAN_POINT('',(-8.5,0.,-6.));
#368=CARTESIAN_POINT('',(-8.5,0.,-8.5));
#369=CARTESIAN_POINT('',(8.5,0.,-8.5));
#370=CARTESIAN_POINT('',(8.5,2.08166817117217E-16,-11.));
#371=CARTESIAN_POINT('',(8.5,0.,-6.));
#372=CARTESIAN_POINT('',(8.5,0.,-8.5));
#373=CARTESIAN_POINT('',(12.,0.,-23.5));
#374=CARTESIAN_POINT('',(12.,0.,-23.5));
#375=CARTESIAN_POINT('',(12.,0.,23.5));
#376=CARTESIAN_POINT('',(8.5,-0.100000000000001,-8.5));
#377=CARTESIAN_POINT('',(8.5,4.1,-11.));
#378=CARTESIAN_POINT('',(-8.5,-0.100000000000001,-8.5));
#379=CARTESIAN_POINT('',(-8.5,4.1,-11.));
#380=CARTESIAN_POINT('',(12.,0.,-23.5));
#381=CARTESIAN_POINT('',(12.,0.,-23.5));
#382=CARTESIAN_POINT('',(12.,0.,0.));
#383=PLANE('',#249);
#384=PLANE('',#260);
#385=PLANE('',#261);
#386=PLANE('',#262);
#387=PLANE('',#269);
#388=PLANE('',#270);
#389=CLOSED_SHELL('',(#239,#240,#241,#242,#243,#244,#245,#246,#247,#248));
#390=MANIFOLD_SOLID_BREP('',#389);
#391=ADVANCED_BREP_SHAPE_REPRESENTATION('',(#390),#50);
ENDSEC;
END-ISO-10303-21;
