ISO-10303-21;
HEADER;
/* Generated by software containing ST-Developer
 * from STEP Tools, Inc. (www.steptools.com) 
 */

FILE_DESCRIPTION(
/* description */ ('Alibre Inc.'),
/* implementation_level */ '2;1');

FILE_NAME(
/* name */ 'export-2D4795A7-5CA1-462E-904E-4D8B2648FC49',
/* time_stamp */ '2025-03-22T15:32:16+01:00',
/* author */ (''),
/* organization */ (''),
/* preprocessor_version */ 'ST-DEVELOPER v17',
/* originating_system */ 'Alibre',
/* authorisation */ '');

FILE_SCHEMA (('AUTOMOTIVE_DESIGN'));
ENDSEC;

DATA;
#10=STYLED_ITEM('NAME_0',(#18),#471);
#11=MECHANICAL_DESIGN_GEOMETRIC_PRESENTATION_REPRESENTATION('NAME_0',(#10),
#33);
#12=COLOUR_RGB('',1.,0.501960784313725,0.);
#13=FILL_AREA_STYLE_COLOUR('NAME_0',#12);
#14=FILL_AREA_STYLE('NAME_0',(#13));
#15=SURFACE_STYLE_FILL_AREA(#14);
#16=SURFACE_SIDE_STYLE('NAME_0',(#15));
#17=SURFACE_STYLE_USAGE(.POSITIVE.,#16);
#18=PRESENTATION_STYLE_ASSIGNMENT((#17));
#19=PRODUCT_DEFINITION_CONTEXT('part definition',#26,'design');
#20=SHAPE_DEFINITION_REPRESENTATION(#21,#472);
#21=PRODUCT_DEFINITION_SHAPE('PRODUCT_VERSION_ID',
'PRODUCT_VERSION_DESCR',#22);
#22=PRODUCT_DEFINITION('PRODUCT_VERSION_ID','PRODUCT_VERSION_DESCR',#23,
#19);
#23=PRODUCT_DEFINITION_FORMATION_WITH_SPECIFIED_SOURCE(
'PRODUCT_VERSION_ID','PRODUCT_VERSION_DESCR',#28,.MADE.);
#24=PRODUCT_RELATED_PRODUCT_CATEGORY('part','part',(#28));
#25=APPLICATION_PROTOCOL_DEFINITION('Draft International Standard',
'automotive_design',1994,#26);
#26=APPLICATION_CONTEXT('automotive_Design');
#27=PRODUCT_CONTEXT('3D Mechanical Parts',#26,'mechanical');
#28=PRODUCT('','LAPP Wire spool DI=18mm DE=150mm W=80mm','',(#27));
#29=(
LENGTH_UNIT()
NAMED_UNIT(*)
SI_UNIT(.MILLI.,.METRE.)
);
#30=(
NAMED_UNIT(*)
PLANE_ANGLE_UNIT()
SI_UNIT($,.RADIAN.)
);
#31=(
NAMED_UNIT(*)
SI_UNIT($,.STERADIAN.)
SOLID_ANGLE_UNIT()
);
#32=UNCERTAINTY_MEASURE_WITH_UNIT(LENGTH_MEASURE(1.E-6),#29,
'DISTANCE_ACCURACY_VALUE',
'Maximum model space distance between geometric entities at asserted c
onnectivities');
#33=(
GEOMETRIC_REPRESENTATION_CONTEXT(3)
GLOBAL_UNCERTAINTY_ASSIGNED_CONTEXT((#32))
GLOBAL_UNIT_ASSIGNED_CONTEXT((#31,#30,#29))
REPRESENTATION_CONTEXT('ID1','3D')
);
#34=PLANE('',#267);
#35=PLANE('',#273);
#36=PLANE('',#287);
#37=PLANE('',#297);
#38=VECTOR('',#315,1.);
#39=VECTOR('',#344,1.);
#40=VECTOR('',#366,1.);
#41=VECTOR('',#384,1.);
#42=LINE('',#397,#38);
#43=LINE('',#423,#39);
#44=LINE('',#442,#40);
#45=LINE('',#457,#41);
#46=CYLINDRICAL_SURFACE('',#264,9.);
#47=CYLINDRICAL_SURFACE('',#280,75.);
#48=CYLINDRICAL_SURFACE('',#292,25.);
#49=CYLINDRICAL_SURFACE('',#302,75.);
#50=VERTEX_POINT('',#392);
#51=VERTEX_POINT('',#393);
#52=VERTEX_POINT('',#398);
#53=VERTEX_POINT('',#400);
#54=VERTEX_POINT('',#404);
#55=VERTEX_POINT('',#407);
#56=VERTEX_POINT('',#409);
#57=VERTEX_POINT('',#413);
#58=VERTEX_POINT('',#414);
#59=VERTEX_POINT('',#418);
#60=VERTEX_POINT('',#420);
#61=VERTEX_POINT('',#424);
#62=VERTEX_POINT('',#426);
#63=VERTEX_POINT('',#430);
#64=VERTEX_POINT('',#432);
#65=VERTEX_POINT('',#436);
#66=VERTEX_POINT('',#439);
#67=VERTEX_POINT('',#443);
#68=VERTEX_POINT('',#447);
#69=VERTEX_POINT('',#451);
#70=VERTEX_POINT('',#454);
#71=VERTEX_POINT('',#458);
#72=CIRCLE('',#261,0.5);
#73=CIRCLE('',#262,9.5);
#74=CIRCLE('',#263,9.);
#75=CIRCLE('',#265,9.);
#76=CIRCLE('',#266,9.);
#77=CIRCLE('',#268,74.5);
#78=CIRCLE('',#270,0.5);
#79=CIRCLE('',#271,9.5);
#80=CIRCLE('',#272,9.5);
#81=CIRCLE('',#274,74.5);
#82=CIRCLE('',#275,74.5);
#83=CIRCLE('',#277,0.5);
#84=CIRCLE('',#278,75.);
#85=CIRCLE('',#279,75.);
#86=CIRCLE('',#281,75.);
#87=CIRCLE('',#282,75.);
#88=CIRCLE('',#284,0.5);
#89=CIRCLE('',#285,74.5);
#90=CIRCLE('',#286,74.5);
#91=CIRCLE('',#288,25.5);
#92=CIRCLE('',#290,0.5);
#93=CIRCLE('',#291,25.);
#94=CIRCLE('',#293,25.);
#95=CIRCLE('',#295,0.5);
#96=CIRCLE('',#296,25.5);
#97=CIRCLE('',#298,74.5);
#98=CIRCLE('',#300,0.5);
#99=CIRCLE('',#301,75.);
#100=CIRCLE('',#303,75.);
#101=CIRCLE('',#305,0.5);
#102=EDGE_CURVE('',#50,#51,#72,.T.);
#103=EDGE_CURVE('',#51,#51,#73,.T.);
#104=EDGE_CURVE('',#50,#50,#74,.T.);
#105=EDGE_CURVE('',#50,#52,#42,.T.);
#106=EDGE_CURVE('',#53,#52,#75,.T.);
#107=EDGE_CURVE('',#52,#53,#76,.T.);
#108=EDGE_CURVE('',#54,#54,#77,.T.);
#109=EDGE_CURVE('',#52,#55,#78,.T.);
#110=EDGE_CURVE('',#55,#56,#79,.T.);
#111=EDGE_CURVE('',#56,#55,#80,.T.);
#112=EDGE_CURVE('',#57,#58,#81,.T.);
#113=EDGE_CURVE('',#58,#57,#82,.T.);
#114=EDGE_CURVE('',#59,#57,#83,.T.);
#115=EDGE_CURVE('',#59,#60,#84,.T.);
#116=EDGE_CURVE('',#60,#59,#85,.T.);
#117=EDGE_CURVE('',#60,#61,#43,.T.);
#118=EDGE_CURVE('',#62,#61,#86,.T.);
#119=EDGE_CURVE('',#61,#62,#87,.T.);
#120=EDGE_CURVE('',#62,#63,#88,.T.);
#121=EDGE_CURVE('',#63,#64,#89,.T.);
#122=EDGE_CURVE('',#64,#63,#90,.T.);
#123=EDGE_CURVE('',#65,#65,#91,.T.);
#124=EDGE_CURVE('',#65,#66,#92,.T.);
#125=EDGE_CURVE('',#66,#66,#93,.T.);
#126=EDGE_CURVE('',#67,#66,#44,.T.);
#127=EDGE_CURVE('',#67,#67,#94,.T.);
#128=EDGE_CURVE('',#68,#67,#95,.T.);
#129=EDGE_CURVE('',#68,#68,#96,.T.);
#130=EDGE_CURVE('',#69,#69,#97,.T.);
#131=EDGE_CURVE('',#70,#69,#98,.T.);
#132=EDGE_CURVE('',#70,#70,#99,.T.);
#133=EDGE_CURVE('',#71,#70,#45,.T.);
#134=EDGE_CURVE('',#71,#71,#100,.T.);
#135=EDGE_CURVE('',#71,#54,#101,.T.);
#136=ORIENTED_EDGE('',*,*,#102,.T.);
#137=ORIENTED_EDGE('',*,*,#103,.T.);
#138=ORIENTED_EDGE('',*,*,#102,.F.);
#139=ORIENTED_EDGE('',*,*,#104,.T.);
#140=ORIENTED_EDGE('',*,*,#105,.F.);
#141=ORIENTED_EDGE('',*,*,#104,.F.);
#142=ORIENTED_EDGE('',*,*,#105,.T.);
#143=ORIENTED_EDGE('',*,*,#106,.F.);
#144=ORIENTED_EDGE('',*,*,#107,.F.);
#145=ORIENTED_EDGE('',*,*,#108,.F.);
#146=ORIENTED_EDGE('',*,*,#103,.F.);
#147=ORIENTED_EDGE('',*,*,#109,.T.);
#148=ORIENTED_EDGE('',*,*,#110,.T.);
#149=ORIENTED_EDGE('',*,*,#111,.T.);
#150=ORIENTED_EDGE('',*,*,#109,.F.);
#151=ORIENTED_EDGE('',*,*,#107,.T.);
#152=ORIENTED_EDGE('',*,*,#106,.T.);
#153=ORIENTED_EDGE('',*,*,#112,.F.);
#154=ORIENTED_EDGE('',*,*,#113,.F.);
#155=ORIENTED_EDGE('',*,*,#110,.F.);
#156=ORIENTED_EDGE('',*,*,#111,.F.);
#157=ORIENTED_EDGE('',*,*,#114,.T.);
#158=ORIENTED_EDGE('',*,*,#112,.T.);
#159=ORIENTED_EDGE('',*,*,#113,.T.);
#160=ORIENTED_EDGE('',*,*,#114,.F.);
#161=ORIENTED_EDGE('',*,*,#115,.T.);
#162=ORIENTED_EDGE('',*,*,#116,.T.);
#163=ORIENTED_EDGE('',*,*,#117,.T.);
#164=ORIENTED_EDGE('',*,*,#118,.F.);
#165=ORIENTED_EDGE('',*,*,#119,.F.);
#166=ORIENTED_EDGE('',*,*,#117,.F.);
#167=ORIENTED_EDGE('',*,*,#115,.F.);
#168=ORIENTED_EDGE('',*,*,#116,.F.);
#169=ORIENTED_EDGE('',*,*,#120,.T.);
#170=ORIENTED_EDGE('',*,*,#121,.T.);
#171=ORIENTED_EDGE('',*,*,#122,.T.);
#172=ORIENTED_EDGE('',*,*,#120,.F.);
#173=ORIENTED_EDGE('',*,*,#118,.T.);
#174=ORIENTED_EDGE('',*,*,#119,.T.);
#175=ORIENTED_EDGE('',*,*,#123,.F.);
#176=ORIENTED_EDGE('',*,*,#121,.F.);
#177=ORIENTED_EDGE('',*,*,#122,.F.);
#178=ORIENTED_EDGE('',*,*,#124,.F.);
#179=ORIENTED_EDGE('',*,*,#123,.T.);
#180=ORIENTED_EDGE('',*,*,#124,.T.);
#181=ORIENTED_EDGE('',*,*,#125,.T.);
#182=ORIENTED_EDGE('',*,*,#126,.T.);
#183=ORIENTED_EDGE('',*,*,#125,.F.);
#184=ORIENTED_EDGE('',*,*,#126,.F.);
#185=ORIENTED_EDGE('',*,*,#127,.F.);
#186=ORIENTED_EDGE('',*,*,#128,.F.);
#187=ORIENTED_EDGE('',*,*,#129,.T.);
#188=ORIENTED_EDGE('',*,*,#128,.T.);
#189=ORIENTED_EDGE('',*,*,#127,.T.);
#190=ORIENTED_EDGE('',*,*,#130,.F.);
#191=ORIENTED_EDGE('',*,*,#129,.F.);
#192=ORIENTED_EDGE('',*,*,#131,.T.);
#193=ORIENTED_EDGE('',*,*,#130,.T.);
#194=ORIENTED_EDGE('',*,*,#131,.F.);
#195=ORIENTED_EDGE('',*,*,#132,.T.);
#196=ORIENTED_EDGE('',*,*,#133,.T.);
#197=ORIENTED_EDGE('',*,*,#132,.F.);
#198=ORIENTED_EDGE('',*,*,#133,.F.);
#199=ORIENTED_EDGE('',*,*,#134,.F.);
#200=ORIENTED_EDGE('',*,*,#135,.T.);
#201=ORIENTED_EDGE('',*,*,#108,.T.);
#202=ORIENTED_EDGE('',*,*,#135,.F.);
#203=ORIENTED_EDGE('',*,*,#134,.T.);
#204=EDGE_LOOP('',(#136,#137,#138,#139));
#205=EDGE_LOOP('',(#140,#141,#142,#143,#144));
#206=EDGE_LOOP('',(#145));
#207=EDGE_LOOP('',(#146));
#208=EDGE_LOOP('',(#147,#148,#149,#150,#151,#152));
#209=EDGE_LOOP('',(#153,#154));
#210=EDGE_LOOP('',(#155,#156));
#211=EDGE_LOOP('',(#157,#158,#159,#160,#161,#162));
#212=EDGE_LOOP('',(#163,#164,#165,#166,#167,#168));
#213=EDGE_LOOP('',(#169,#170,#171,#172,#173,#174));
#214=EDGE_LOOP('',(#175));
#215=EDGE_LOOP('',(#176,#177));
#216=EDGE_LOOP('',(#178,#179,#180,#181));
#217=EDGE_LOOP('',(#182,#183,#184,#185));
#218=EDGE_LOOP('',(#186,#187,#188,#189));
#219=EDGE_LOOP('',(#190));
#220=EDGE_LOOP('',(#191));
#221=EDGE_LOOP('',(#192,#193,#194,#195));
#222=EDGE_LOOP('',(#196,#197,#198,#199));
#223=EDGE_LOOP('',(#200,#201,#202,#203));
#224=FACE_BOUND('',#204,.T.);
#225=FACE_BOUND('',#205,.T.);
#226=FACE_BOUND('',#206,.T.);
#227=FACE_BOUND('',#207,.T.);
#228=FACE_BOUND('',#208,.T.);
#229=FACE_BOUND('',#209,.T.);
#230=FACE_BOUND('',#210,.T.);
#231=FACE_BOUND('',#211,.T.);
#232=FACE_BOUND('',#212,.T.);
#233=FACE_BOUND('',#213,.T.);
#234=FACE_BOUND('',#214,.T.);
#235=FACE_BOUND('',#215,.T.);
#236=FACE_BOUND('',#216,.T.);
#237=FACE_BOUND('',#217,.T.);
#238=FACE_BOUND('',#218,.T.);
#239=FACE_BOUND('',#219,.T.);
#240=FACE_BOUND('',#220,.T.);
#241=FACE_BOUND('',#221,.T.);
#242=FACE_BOUND('',#222,.T.);
#243=FACE_BOUND('',#223,.T.);
#244=ADVANCED_FACE('',(#224),#462,.T.);
#245=ADVANCED_FACE('',(#225),#46,.F.);
#246=ADVANCED_FACE('',(#226,#227),#34,.T.);
#247=ADVANCED_FACE('',(#228),#463,.T.);
#248=ADVANCED_FACE('',(#229,#230),#35,.T.);
#249=ADVANCED_FACE('',(#231),#464,.T.);
#250=ADVANCED_FACE('',(#232),#47,.T.);
#251=ADVANCED_FACE('',(#233),#465,.T.);
#252=ADVANCED_FACE('',(#234,#235),#36,.F.);
#253=ADVANCED_FACE('',(#236),#466,.F.);
#254=ADVANCED_FACE('',(#237),#48,.T.);
#255=ADVANCED_FACE('',(#238),#467,.F.);
#256=ADVANCED_FACE('',(#239,#240),#37,.F.);
#257=ADVANCED_FACE('',(#241),#468,.T.);
#258=ADVANCED_FACE('',(#242),#49,.T.);
#259=ADVANCED_FACE('',(#243),#469,.T.);
#260=AXIS2_PLACEMENT_3D('',#390,#306,$);
#261=AXIS2_PLACEMENT_3D('',#391,#307,#308);
#262=AXIS2_PLACEMENT_3D('',#394,#309,#310);
#263=AXIS2_PLACEMENT_3D('',#395,#311,#312);
#264=AXIS2_PLACEMENT_3D('',#396,#313,#314);
#265=AXIS2_PLACEMENT_3D('',#399,#316,#317);
#266=AXIS2_PLACEMENT_3D('',#401,#318,#319);
#267=AXIS2_PLACEMENT_3D('',#402,#320,$);
#268=AXIS2_PLACEMENT_3D('',#403,#321,#322);
#269=AXIS2_PLACEMENT_3D('',#405,#323,$);
#270=AXIS2_PLACEMENT_3D('',#406,#324,#325);
#271=AXIS2_PLACEMENT_3D('',#408,#326,#327);
#272=AXIS2_PLACEMENT_3D('',#410,#328,#329);
#273=AXIS2_PLACEMENT_3D('',#411,#330,$);
#274=AXIS2_PLACEMENT_3D('',#412,#331,#332);
#275=AXIS2_PLACEMENT_3D('',#415,#333,#334);
#276=AXIS2_PLACEMENT_3D('',#416,#335,$);
#277=AXIS2_PLACEMENT_3D('',#417,#336,#337);
#278=AXIS2_PLACEMENT_3D('',#419,#338,#339);
#279=AXIS2_PLACEMENT_3D('',#421,#340,#341);
#280=AXIS2_PLACEMENT_3D('',#422,#342,#343);
#281=AXIS2_PLACEMENT_3D('',#425,#345,#346);
#282=AXIS2_PLACEMENT_3D('',#427,#347,#348);
#283=AXIS2_PLACEMENT_3D('',#428,#349,$);
#284=AXIS2_PLACEMENT_3D('',#429,#350,#351);
#285=AXIS2_PLACEMENT_3D('',#431,#352,#353);
#286=AXIS2_PLACEMENT_3D('',#433,#354,#355);
#287=AXIS2_PLACEMENT_3D('',#434,#356,$);
#288=AXIS2_PLACEMENT_3D('',#435,#357,#358);
#289=AXIS2_PLACEMENT_3D('',#437,#359,$);
#290=AXIS2_PLACEMENT_3D('',#438,#360,#361);
#291=AXIS2_PLACEMENT_3D('',#440,#362,#363);
#292=AXIS2_PLACEMENT_3D('',#441,#364,#365);
#293=AXIS2_PLACEMENT_3D('',#444,#367,#368);
#294=AXIS2_PLACEMENT_3D('',#445,#369,$);
#295=AXIS2_PLACEMENT_3D('',#446,#370,#371);
#296=AXIS2_PLACEMENT_3D('',#448,#372,#373);
#297=AXIS2_PLACEMENT_3D('',#449,#374,$);
#298=AXIS2_PLACEMENT_3D('',#450,#375,#376);
#299=AXIS2_PLACEMENT_3D('',#452,#377,$);
#300=AXIS2_PLACEMENT_3D('',#453,#378,#379);
#301=AXIS2_PLACEMENT_3D('',#455,#380,#381);
#302=AXIS2_PLACEMENT_3D('',#456,#382,#383);
#303=AXIS2_PLACEMENT_3D('',#459,#385,#386);
#304=AXIS2_PLACEMENT_3D('',#460,#387,$);
#305=AXIS2_PLACEMENT_3D('',#461,#388,#389);
#306=DIRECTION('',(0.,0.,1.));
#307=DIRECTION('',(0.,1.,0.));
#308=DIRECTION('',(0.5,0.,0.));
#309=DIRECTION('',(0.,0.,1.));
#310=DIRECTION('',(-9.5,1.16341445918999E-15,0.));
#311=DIRECTION('',(0.,0.,-1.));
#312=DIRECTION('',(-9.,1.10218211923262E-15,0.));
#313=DIRECTION('',(0.,0.,1.));
#314=DIRECTION('',(9.,0.,0.));
#315=DIRECTION('',(0.,0.,-1.));
#316=DIRECTION('',(0.,0.,1.));
#317=DIRECTION('',(9.,1.10218211923262E-15,0.));
#318=DIRECTION('',(0.,0.,1.));
#319=DIRECTION('',(9.,1.10218211923262E-15,0.));
#320=DIRECTION('',(0.,0.,1.));
#321=DIRECTION('',(0.,0.,-1.));
#322=DIRECTION('',(-74.5,-9.12361865364778E-15,0.));
#323=DIRECTION('',(0.,0.,-1.));
#324=DIRECTION('',(0.,-1.,0.));
#325=DIRECTION('',(0.5,0.,0.));
#326=DIRECTION('',(0.,0.,-1.));
#327=DIRECTION('',(9.5,1.16341445918999E-15,0.));
#328=DIRECTION('',(0.,0.,-1.));
#329=DIRECTION('',(9.5,1.16341445918999E-15,0.));
#330=DIRECTION('',(0.,0.,-1.));
#331=DIRECTION('',(0.,0.,1.));
#332=DIRECTION('',(74.5,-9.12361865364778E-15,0.));
#333=DIRECTION('',(0.,0.,1.));
#334=DIRECTION('',(74.5,-9.12361865364778E-15,0.));
#335=DIRECTION('',(0.,0.,1.));
#336=DIRECTION('',(0.,1.,0.));
#337=DIRECTION('',(0.5,0.,0.));
#338=DIRECTION('',(0.,0.,-1.));
#339=DIRECTION('',(75.,-9.18485099360515E-15,0.));
#340=DIRECTION('',(0.,0.,-1.));
#341=DIRECTION('',(75.,-9.18485099360515E-15,0.));
#342=DIRECTION('',(0.,0.,-1.));
#343=DIRECTION('',(-75.,0.,0.));
#344=DIRECTION('',(0.,0.,1.));
#345=DIRECTION('',(0.,0.,1.));
#346=DIRECTION('',(75.,9.18485099360515E-15,0.));
#347=DIRECTION('',(0.,0.,1.));
#348=DIRECTION('',(75.,9.18485099360515E-15,0.));
#349=DIRECTION('',(0.,0.,-1.));
#350=DIRECTION('',(0.,-1.,0.));
#351=DIRECTION('',(0.5,0.,0.));
#352=DIRECTION('',(0.,0.,-1.));
#353=DIRECTION('',(74.5,9.12361865364778E-15,0.));
#354=DIRECTION('',(0.,0.,-1.));
#355=DIRECTION('',(74.5,9.12361865364778E-15,0.));
#356=DIRECTION('',(0.,0.,-1.));
#357=DIRECTION('',(0.,0.,1.));
#358=DIRECTION('',(-25.5,3.12284933782575E-15,0.));
#359=DIRECTION('',(0.,0.,1.));
#360=DIRECTION('',(0.,1.,0.));
#361=DIRECTION('',(0.5,0.,0.));
#362=DIRECTION('',(0.,0.,-1.));
#363=DIRECTION('',(-25.,3.06161699786838E-15,0.));
#364=DIRECTION('',(0.,0.,1.));
#365=DIRECTION('',(25.,0.,0.));
#366=DIRECTION('',(0.,0.,-1.));
#367=DIRECTION('',(0.,0.,1.));
#368=DIRECTION('',(-25.,-3.06161699786838E-15,0.));
#369=DIRECTION('',(0.,0.,-1.));
#370=DIRECTION('',(0.,-1.,0.));
#371=DIRECTION('',(0.5,0.,0.));
#372=DIRECTION('',(0.,0.,-1.));
#373=DIRECTION('',(-25.5,-3.12284933782575E-15,0.));
#374=DIRECTION('',(0.,0.,1.));
#375=DIRECTION('',(0.,0.,1.));
#376=DIRECTION('',(-74.5,9.12361865364778E-15,0.));
#377=DIRECTION('',(0.,0.,1.));
#378=DIRECTION('',(0.,1.,0.));
#379=DIRECTION('',(0.5,0.,0.));
#380=DIRECTION('',(0.,0.,-1.));
#381=DIRECTION('',(-75.,9.18485099360515E-15,0.));
#382=DIRECTION('',(0.,0.,1.));
#383=DIRECTION('',(75.,0.,0.));
#384=DIRECTION('',(0.,0.,-1.));
#385=DIRECTION('',(0.,0.,1.));
#386=DIRECTION('',(-75.,-9.18485099360515E-15,0.));
#387=DIRECTION('',(0.,0.,-1.));
#388=DIRECTION('',(0.,-1.,0.));
#389=DIRECTION('',(0.5,0.,0.));
#390=CARTESIAN_POINT('',(0.,0.,39.5));
#391=CARTESIAN_POINT('',(9.5,0.,39.5));
#392=CARTESIAN_POINT('',(9.,-1.08468374467889E-30,39.5));
#393=CARTESIAN_POINT('',(9.5,-1.74512168878498E-15,40.));
#394=CARTESIAN_POINT('',(0.,0.,40.));
#395=CARTESIAN_POINT('',(0.,0.,39.5));
#396=CARTESIAN_POINT('',(0.,0.,-37.5));
#397=CARTESIAN_POINT('',(9.,0.,37.5));
#398=CARTESIAN_POINT('',(9.,-5.51091059616308E-16,-39.5));
#399=CARTESIAN_POINT('',(0.,0.,-39.5));
#400=CARTESIAN_POINT('',(-9.,0.,-39.5));
#401=CARTESIAN_POINT('',(0.,0.,-39.5));
#402=CARTESIAN_POINT('',(0.,0.,40.));
#403=CARTESIAN_POINT('',(0.,0.,40.));
#404=CARTESIAN_POINT('',(74.5,1.36854279804717E-14,40.));
#405=CARTESIAN_POINT('',(0.,0.,-39.5));
#406=CARTESIAN_POINT('',(9.5,0.,-39.5));
#407=CARTESIAN_POINT('',(9.5,1.74512168878498E-15,-40.));
#408=CARTESIAN_POINT('',(0.,0.,-40.));
#409=CARTESIAN_POINT('',(-9.5,-2.32682891837997E-15,-40.));
#410=CARTESIAN_POINT('',(0.,0.,-40.));
#411=CARTESIAN_POINT('',(0.,0.,-40.));
#412=CARTESIAN_POINT('',(0.,0.,-40.));
#413=CARTESIAN_POINT('',(74.5,-1.36854279804717E-14,-40.));
#414=CARTESIAN_POINT('',(-74.5,1.82472373072956E-14,-40.));
#415=CARTESIAN_POINT('',(0.,0.,-40.));
#416=CARTESIAN_POINT('',(0.,0.,-39.5));
#417=CARTESIAN_POINT('',(74.5,0.,-39.5));
#418=CARTESIAN_POINT('',(75.,4.59242549680257E-15,-39.5));
#419=CARTESIAN_POINT('',(0.,0.,-39.5));
#420=CARTESIAN_POINT('',(-75.,4.59242549680257E-15,-39.5));
#421=CARTESIAN_POINT('',(0.,0.,-39.5));
#422=CARTESIAN_POINT('',(0.,0.,-37.5));
#423=CARTESIAN_POINT('',(-75.,0.,-40.));
#424=CARTESIAN_POINT('',(-75.,-4.59242549680257E-15,-38.));
#425=CARTESIAN_POINT('',(0.,0.,-38.));
#426=CARTESIAN_POINT('',(75.,7.88860905221012E-31,-38.));
#427=CARTESIAN_POINT('',(0.,0.,-38.));
#428=CARTESIAN_POINT('',(0.,0.,-38.));
#429=CARTESIAN_POINT('',(74.5,0.,-38.));
#430=CARTESIAN_POINT('',(74.5,1.36854279804717E-14,-37.5));
#431=CARTESIAN_POINT('',(0.,0.,-37.5));
#432=CARTESIAN_POINT('',(-74.5,-1.82472373072956E-14,-37.5));
#433=CARTESIAN_POINT('',(0.,0.,-37.5));
#434=CARTESIAN_POINT('',(0.,0.,-37.5));
#435=CARTESIAN_POINT('',(0.,0.,-37.5));
#436=CARTESIAN_POINT('',(25.5,-4.68427400673863E-15,-37.5));
#437=CARTESIAN_POINT('',(0.,0.,-37.));
#438=CARTESIAN_POINT('',(25.5,0.,-37.));
#439=CARTESIAN_POINT('',(25.,1.57772181044202E-30,-37.));
#440=CARTESIAN_POINT('',(0.,0.,-37.));
#441=CARTESIAN_POINT('',(0.,0.,-37.5));
#442=CARTESIAN_POINT('',(25.,0.,37.5));
#443=CARTESIAN_POINT('',(25.,-1.57772181044202E-30,37.));
#444=CARTESIAN_POINT('',(0.,0.,37.));
#445=CARTESIAN_POINT('',(0.,0.,37.));
#446=CARTESIAN_POINT('',(25.5,0.,37.));
#447=CARTESIAN_POINT('',(25.5,4.68427400673863E-15,37.5));
#448=CARTESIAN_POINT('',(0.,0.,37.5));
#449=CARTESIAN_POINT('',(0.,0.,37.5));
#450=CARTESIAN_POINT('',(0.,0.,37.5));
#451=CARTESIAN_POINT('',(74.5,-1.36854279804717E-14,37.5));
#452=CARTESIAN_POINT('',(0.,0.,38.));
#453=CARTESIAN_POINT('',(74.5,0.,38.));
#454=CARTESIAN_POINT('',(75.,-7.88860905221012E-31,38.));
#455=CARTESIAN_POINT('',(0.,0.,38.));
#456=CARTESIAN_POINT('',(0.,0.,37.5));
#457=CARTESIAN_POINT('',(75.,0.,40.));
#458=CARTESIAN_POINT('',(75.,7.88860905221012E-31,39.5));
#459=CARTESIAN_POINT('',(0.,0.,39.5));
#460=CARTESIAN_POINT('',(0.,0.,39.5));
#461=CARTESIAN_POINT('',(74.5,0.,39.5));
#462=TOROIDAL_SURFACE('',#260,9.5,0.5);
#463=TOROIDAL_SURFACE('',#269,9.5,0.5);
#464=TOROIDAL_SURFACE('',#276,74.5,0.5);
#465=TOROIDAL_SURFACE('',#283,74.5,0.5);
#466=TOROIDAL_SURFACE('',#289,25.5,0.5);
#467=TOROIDAL_SURFACE('',#294,25.5,0.5);
#468=TOROIDAL_SURFACE('',#299,74.5,0.5);
#469=TOROIDAL_SURFACE('',#304,74.5,0.5);
#470=CLOSED_SHELL('',(#244,#245,#246,#247,#248,#249,#250,#251,#252,#253,
#254,#255,#256,#257,#258,#259));
#471=MANIFOLD_SOLID_BREP('',#470);
#472=ADVANCED_BREP_SHAPE_REPRESENTATION('',(#471),#33);
ENDSEC;
END-ISO-10303-21;
