ISO-10303-21;
HEADER;

/* File generated by Alibre Version V28 */

FILE_DESCRIPTION(('HOOPS Exchange Step'),'2;1');

FILE_NAME('C:\\Users\\Gebruiker\\AppData\\Local\\Temp\\Alibre Design\\28.0.4.28141\\export-B2E7DA2F-4C23-425D-B44F-E9BBB9D5D5AE.stp',
'2025-03-22T15:32:33+01:00',
('Engineering'),
('Alibre'),
'HOOPS Exchange 2024.5',
'Alibre',
'Unknown authorisation');

FILE_SCHEMA( ('AP242_MANAGED_MODEL_BASED_3D_ENGINEERING_MIM_LF {1 0 10303 442 1 1 4 }') );

ENDSEC;

DATA;
#3=(NAMED_UNIT(*)PLANE_ANGLE_UNIT()SI_UNIT($,.RADIAN.));
#4=PLANE_ANGLE_MEASURE_WITH_UNIT(PLANE_ANGLE_MEASURE(0.0174532925),#3);
#5=(CONVERSION_BASED_UNIT('DEGREE',#4)NAMED_UNIT(#6)PLANE_ANGLE_UNIT());
#6=DIMENSIONAL_EXPONENTS(0.,0.,0.,0.,0.,0.,0.);
#7=(NAMED_UNIT(*)SI_UNIT($,.STERADIAN.)SOLID_ANGLE_UNIT());
#8=(LENGTH_UNIT()NAMED_UNIT(*)SI_UNIT(.MILLI.,.METRE.));
#9=UNCERTAINTY_MEASURE_WITH_UNIT(LENGTH_MEASURE(1.000000E-06),#8,'DISTANCE_ACCURACY_VALUE','Maximum Tolerance applied to model');
#10=(GEOMETRIC_REPRESENTATION_CONTEXT(3)GLOBAL_UNCERTAINTY_ASSIGNED_CONTEXT((#9))GLOBAL_UNIT_ASSIGNED_CONTEXT((#8,#5,#7))REPRESENTATION_CONTEXT('','LAPP Wire spool DI=18mm DE=150mm W=80mm'));
#12=CARTESIAN_POINT('',(0.,0.,0.));
#13=DIRECTION('',(0.,0.,1.));
#14=DIRECTION('',(1.,0.,0.));
#15=AXIS2_PLACEMENT_3D('',#12,#13,#14);
#27=CARTESIAN_POINT('',(0.,0.,39.5));
#28=DIRECTION('',(0.,0.,1.));
#29=DIRECTION('',(1.,0.,-0.));
#30=AXIS2_PLACEMENT_3D('',#27,#28,#29);
#31=TOROIDAL_SURFACE('',#30,9.5,0.5);
#32=CARTESIAN_POINT('',(-9.,-0.,39.5));
#33=VERTEX_POINT('',#32);
#34=CARTESIAN_POINT('',(-9.5,0.,40.));
#35=VERTEX_POINT('',#34);
#36=CARTESIAN_POINT('',(-9.5,0.,39.5));
#37=DIRECTION('',(-0.,-1.,-0.));
#38=DIRECTION('',(-1.,0.,0.));
#39=AXIS2_PLACEMENT_3D('',#36,#37,#38);
#40=CIRCLE('',#39,0.5);
#41=EDGE_CURVE('',#33,#35,#40,.T.);
#42=ORIENTED_EDGE('',*,*,#41,.T.);
#43=CARTESIAN_POINT('',(9.5,-0.,40.));
#44=VERTEX_POINT('',#43);
#45=CARTESIAN_POINT('',(0.,0.,40.));
#46=DIRECTION('',(0.,0.,1.));
#47=DIRECTION('',(-1.,0.,0.));
#48=AXIS2_PLACEMENT_3D('',#45,#46,#47);
#49=CIRCLE('',#48,9.5);
#50=EDGE_CURVE('',#35,#44,#49,.T.);
#51=ORIENTED_EDGE('',*,*,#50,.T.);
#52=CARTESIAN_POINT('',(9.,-0.,39.5));
#53=VERTEX_POINT('',#52);
#54=CARTESIAN_POINT('',(9.5,0.,39.5));
#55=DIRECTION('',(-0.,1.,0.));
#56=DIRECTION('',(1.,0.,0.));
#57=AXIS2_PLACEMENT_3D('',#54,#55,#56);
#58=CIRCLE('',#57,0.5);
#59=EDGE_CURVE('',#53,#44,#58,.T.);
#60=ORIENTED_EDGE('',*,*,#59,.F.);
#61=CARTESIAN_POINT('',(0.,0.,39.5));
#62=DIRECTION('',(0.,0.,-1.));
#63=DIRECTION('',(-1.,0.,0.));
#64=AXIS2_PLACEMENT_3D('',#61,#62,#63);
#65=CIRCLE('',#64,9.);
#66=EDGE_CURVE('',#53,#33,#65,.T.);
#67=ORIENTED_EDGE('',*,*,#66,.T.);
#68=EDGE_LOOP('',(#42,#51,#60,#67));
#69=FACE_BOUND('',#68,.T.);
#70=ADVANCED_FACE('',(#69),#31,.T.);
#71=CARTESIAN_POINT('',(0.,0.,-37.5));
#72=DIRECTION('',(0.,0.,1.));
#73=DIRECTION('',(1.,0.,-0.));
#74=AXIS2_PLACEMENT_3D('',#71,#72,#73);
#75=CYLINDRICAL_SURFACE('',#74,9.);
#76=CARTESIAN_POINT('',(-9.,0.,-39.5));
#77=VERTEX_POINT('',#76);
#78=CARTESIAN_POINT('',(-9.,0.,39.5));
#79=DIRECTION('',(-0.,-0.,-1.));
#80=VECTOR('',#79,79.);
#81=LINE('',#78,#80);
#82=EDGE_CURVE('',#33,#77,#81,.T.);
#83=ORIENTED_EDGE('',*,*,#82,.F.);
#84=ORIENTED_EDGE('',*,*,#66,.F.);
#85=CARTESIAN_POINT('',(9.,-0.,-39.5));
#86=VERTEX_POINT('',#85);
#87=CARTESIAN_POINT('',(9.,0.,39.5));
#88=DIRECTION('',(0.,0.,-1.));
#89=VECTOR('',#88,79.);
#90=LINE('',#87,#89);
#91=EDGE_CURVE('',#53,#86,#90,.T.);
#92=ORIENTED_EDGE('',*,*,#91,.T.);
#93=CARTESIAN_POINT('',(0.,0.,-39.5));
#94=DIRECTION('',(0.,-0.,1.));
#95=DIRECTION('',(1.,0.,0.));
#96=AXIS2_PLACEMENT_3D('',#93,#94,#95);
#97=CIRCLE('',#96,9.);
#98=EDGE_CURVE('',#77,#86,#97,.T.);
#99=ORIENTED_EDGE('',*,*,#98,.F.);
#100=EDGE_LOOP('',(#83,#84,#92,#99));
#101=FACE_BOUND('',#100,.T.);
#102=ADVANCED_FACE('',(#101),#75,.F.);
#103=CARTESIAN_POINT('',(0.,0.,40.));
#104=DIRECTION('',(0.,0.,1.));
#105=DIRECTION('',(1.,0.,0.));
#106=AXIS2_PLACEMENT_3D('',#103,#104,#105);
#107=PLANE('',#106);
#108=CARTESIAN_POINT('',(-74.5,-0.,40.));
#109=VERTEX_POINT('',#108);
#110=CARTESIAN_POINT('',(74.5,0.,40.));
#111=VERTEX_POINT('',#110);
#112=CARTESIAN_POINT('',(0.,0.,40.));
#113=DIRECTION('',(-0.,0.,-1.));
#114=DIRECTION('',(-1.,-0.,0.));
#115=AXIS2_PLACEMENT_3D('',#112,#113,#114);
#116=CIRCLE('',#115,74.5);
#117=EDGE_CURVE('',#109,#111,#116,.T.);
#118=ORIENTED_EDGE('',*,*,#117,.F.);
#119=CARTESIAN_POINT('',(0.,0.,40.));
#120=DIRECTION('',(-0.,0.,-1.));
#121=DIRECTION('',(-1.,-0.,0.));
#122=AXIS2_PLACEMENT_3D('',#119,#120,#121);
#123=CIRCLE('',#122,74.5);
#124=EDGE_CURVE('',#111,#109,#123,.T.);
#125=ORIENTED_EDGE('',*,*,#124,.F.);
#126=EDGE_LOOP('',(#118,#125));
#127=FACE_BOUND('',#126,.T.);
#128=ORIENTED_EDGE('',*,*,#50,.F.);
#129=CARTESIAN_POINT('',(0.,0.,40.));
#130=DIRECTION('',(0.,0.,1.));
#131=DIRECTION('',(-1.,0.,0.));
#132=AXIS2_PLACEMENT_3D('',#129,#130,#131);
#133=CIRCLE('',#132,9.5);
#134=EDGE_CURVE('',#44,#35,#133,.T.);
#135=ORIENTED_EDGE('',*,*,#134,.F.);
#136=EDGE_LOOP('',(#128,#135));
#137=FACE_BOUND('',#136,.T.);
#138=ADVANCED_FACE('',(#127,#137),#107,.T.);
#139=CARTESIAN_POINT('',(0.,0.,-39.5));
#140=DIRECTION('',(0.,0.,-1.));
#141=DIRECTION('',(1.,0.,0.));
#142=AXIS2_PLACEMENT_3D('',#139,#140,#141);
#143=TOROIDAL_SURFACE('',#142,9.5,0.5);
#144=CARTESIAN_POINT('',(-9.5,-0.,-40.));
#145=VERTEX_POINT('',#144);
#146=CARTESIAN_POINT('',(-9.5,-0.,-39.5));
#147=DIRECTION('',(-0.,1.,-0.));
#148=DIRECTION('',(-1.,-0.,0.));
#149=AXIS2_PLACEMENT_3D('',#146,#147,#148);
#150=CIRCLE('',#149,0.5);
#151=EDGE_CURVE('',#77,#145,#150,.T.);
#152=ORIENTED_EDGE('',*,*,#151,.T.);
#153=CARTESIAN_POINT('',(9.5,0.,-40.));
#154=VERTEX_POINT('',#153);
#155=CARTESIAN_POINT('',(0.,0.,-40.));
#156=DIRECTION('',(0.,0.,-1.));
#157=DIRECTION('',(1.,0.,0.));
#158=AXIS2_PLACEMENT_3D('',#155,#156,#157);
#159=CIRCLE('',#158,9.5);
#160=EDGE_CURVE('',#145,#154,#159,.T.);
#161=ORIENTED_EDGE('',*,*,#160,.T.);
#162=CARTESIAN_POINT('',(9.5,0.,-39.5));
#163=DIRECTION('',(0.,-1.,0.));
#164=DIRECTION('',(1.,0.,0.));
#165=AXIS2_PLACEMENT_3D('',#162,#163,#164);
#166=CIRCLE('',#165,0.5);
#167=EDGE_CURVE('',#86,#154,#166,.T.);
#168=ORIENTED_EDGE('',*,*,#167,.F.);
#169=CARTESIAN_POINT('',(0.,0.,-39.5));
#170=DIRECTION('',(0.,-0.,1.));
#171=DIRECTION('',(1.,0.,0.));
#172=AXIS2_PLACEMENT_3D('',#169,#170,#171);
#173=CIRCLE('',#172,9.);
#174=EDGE_CURVE('',#86,#77,#173,.T.);
#175=ORIENTED_EDGE('',*,*,#174,.T.);
#176=EDGE_LOOP('',(#152,#161,#168,#175));
#177=FACE_BOUND('',#176,.T.);
#178=ADVANCED_FACE('',(#177),#143,.T.);
#179=CARTESIAN_POINT('',(0.,0.,-40.));
#180=DIRECTION('',(0.,0.,-1.));
#181=DIRECTION('',(1.,0.,0.));
#182=AXIS2_PLACEMENT_3D('',#179,#180,#181);
#183=PLANE('',#182);
#184=CARTESIAN_POINT('',(74.5,-0.,-40.));
#185=VERTEX_POINT('',#184);
#186=CARTESIAN_POINT('',(-74.5,0.,-40.));
#187=VERTEX_POINT('',#186);
#188=CARTESIAN_POINT('',(0.,0.,-40.));
#189=DIRECTION('',(0.,0.,1.));
#190=DIRECTION('',(1.,-0.,0.));
#191=AXIS2_PLACEMENT_3D('',#188,#189,#190);
#192=CIRCLE('',#191,74.5);
#193=EDGE_CURVE('',#185,#187,#192,.T.);
#194=ORIENTED_EDGE('',*,*,#193,.F.);
#195=CARTESIAN_POINT('',(0.,0.,-40.));
#196=DIRECTION('',(0.,0.,1.));
#197=DIRECTION('',(1.,-0.,0.));
#198=AXIS2_PLACEMENT_3D('',#195,#196,#197);
#199=CIRCLE('',#198,74.5);
#200=EDGE_CURVE('',#187,#185,#199,.T.);
#201=ORIENTED_EDGE('',*,*,#200,.F.);
#202=EDGE_LOOP('',(#194,#201));
#203=FACE_BOUND('',#202,.T.);
#204=CARTESIAN_POINT('',(0.,0.,-40.));
#205=DIRECTION('',(0.,0.,-1.));
#206=DIRECTION('',(1.,0.,0.));
#207=AXIS2_PLACEMENT_3D('',#204,#205,#206);
#208=CIRCLE('',#207,9.5);
#209=EDGE_CURVE('',#154,#145,#208,.T.);
#210=ORIENTED_EDGE('',*,*,#209,.F.);
#211=ORIENTED_EDGE('',*,*,#160,.F.);
#212=EDGE_LOOP('',(#210,#211));
#213=FACE_BOUND('',#212,.T.);
#214=ADVANCED_FACE('',(#203,#213),#183,.T.);
#215=CARTESIAN_POINT('',(0.,0.,-39.5));
#216=DIRECTION('',(0.,0.,1.));
#217=DIRECTION('',(1.,0.,-0.));
#218=AXIS2_PLACEMENT_3D('',#215,#216,#217);
#219=TOROIDAL_SURFACE('',#218,74.5,0.5);
#220=CARTESIAN_POINT('',(-75.,0.,-39.5));
#221=VERTEX_POINT('',#220);
#222=CARTESIAN_POINT('',(-74.5,0.,-39.5));
#223=DIRECTION('',(-0.,-1.,-0.));
#224=DIRECTION('',(-1.,0.,0.));
#225=AXIS2_PLACEMENT_3D('',#222,#223,#224);
#226=CIRCLE('',#225,0.5);
#227=EDGE_CURVE('',#221,#187,#226,.T.);
#228=ORIENTED_EDGE('',*,*,#227,.T.);
#229=ORIENTED_EDGE('',*,*,#200,.T.);
#230=CARTESIAN_POINT('',(75.,0.,-39.5));
#231=VERTEX_POINT('',#230);
#232=CARTESIAN_POINT('',(74.5,0.,-39.5));
#233=DIRECTION('',(-0.,1.,0.));
#234=DIRECTION('',(1.,0.,0.));
#235=AXIS2_PLACEMENT_3D('',#232,#233,#234);
#236=CIRCLE('',#235,0.5);
#237=EDGE_CURVE('',#231,#185,#236,.T.);
#238=ORIENTED_EDGE('',*,*,#237,.F.);
#239=CARTESIAN_POINT('',(0.,0.,-39.5));
#240=DIRECTION('',(0.,0.,-1.));
#241=DIRECTION('',(1.,-0.,0.));
#242=AXIS2_PLACEMENT_3D('',#239,#240,#241);
#243=CIRCLE('',#242,75.);
#244=EDGE_CURVE('',#231,#221,#243,.T.);
#245=ORIENTED_EDGE('',*,*,#244,.T.);
#246=EDGE_LOOP('',(#228,#229,#238,#245));
#247=FACE_BOUND('',#246,.T.);
#248=ADVANCED_FACE('',(#247),#219,.T.);
#249=CARTESIAN_POINT('',(0.,0.,-37.5));
#250=DIRECTION('',(0.,0.,-1.));
#251=DIRECTION('',(-1.,0.,0.));
#252=AXIS2_PLACEMENT_3D('',#249,#250,#251);
#253=CYLINDRICAL_SURFACE('',#252,75.);
#254=CARTESIAN_POINT('',(75.,0.,-38.));
#255=VERTEX_POINT('',#254);
#256=CARTESIAN_POINT('',(75.,0.,-39.5));
#257=DIRECTION('',(-0.,-0.,1.));
#258=VECTOR('',#257,1.5);
#259=LINE('',#256,#258);
#260=EDGE_CURVE('',#231,#255,#259,.T.);
#261=ORIENTED_EDGE('',*,*,#260,.T.);
#262=CARTESIAN_POINT('',(-75.,-0.,-38.));
#263=VERTEX_POINT('',#262);
#264=CARTESIAN_POINT('',(0.,0.,-38.));
#265=DIRECTION('',(0.,-0.,1.));
#266=DIRECTION('',(1.,0.,0.));
#267=AXIS2_PLACEMENT_3D('',#264,#265,#266);
#268=CIRCLE('',#267,75.);
#269=EDGE_CURVE('',#263,#255,#268,.T.);
#270=ORIENTED_EDGE('',*,*,#269,.F.);
#271=CARTESIAN_POINT('',(-75.,0.,-39.5));
#272=DIRECTION('',(0.,0.,1.));
#273=VECTOR('',#272,1.5);
#274=LINE('',#271,#273);
#275=EDGE_CURVE('',#221,#263,#274,.T.);
#276=ORIENTED_EDGE('',*,*,#275,.F.);
#277=ORIENTED_EDGE('',*,*,#244,.F.);
#278=EDGE_LOOP('',(#261,#270,#276,#277));
#279=FACE_BOUND('',#278,.T.);
#280=ADVANCED_FACE('',(#279),#253,.T.);
#281=CARTESIAN_POINT('',(0.,0.,-38.));
#282=DIRECTION('',(0.,0.,-1.));
#283=DIRECTION('',(1.,0.,0.));
#284=AXIS2_PLACEMENT_3D('',#281,#282,#283);
#285=TOROIDAL_SURFACE('',#284,74.5,0.5);
#286=CARTESIAN_POINT('',(-74.5,-0.,-37.5));
#287=VERTEX_POINT('',#286);
#288=CARTESIAN_POINT('',(-74.5,-0.,-38.));
#289=DIRECTION('',(-0.,1.,-0.));
#290=DIRECTION('',(-1.,-0.,0.));
#291=AXIS2_PLACEMENT_3D('',#288,#289,#290);
#292=CIRCLE('',#291,0.5);
#293=EDGE_CURVE('',#263,#287,#292,.T.);
#294=ORIENTED_EDGE('',*,*,#293,.T.);
#295=CARTESIAN_POINT('',(74.5,0.,-37.5));
#296=VERTEX_POINT('',#295);
#297=CARTESIAN_POINT('',(0.,0.,-37.5));
#298=DIRECTION('',(0.,0.,-1.));
#299=DIRECTION('',(1.,0.,0.));
#300=AXIS2_PLACEMENT_3D('',#297,#298,#299);
#301=CIRCLE('',#300,74.5);
#302=EDGE_CURVE('',#287,#296,#301,.T.);
#303=ORIENTED_EDGE('',*,*,#302,.T.);
#304=CARTESIAN_POINT('',(74.5,0.,-38.));
#305=DIRECTION('',(0.,-1.,0.));
#306=DIRECTION('',(1.,0.,0.));
#307=AXIS2_PLACEMENT_3D('',#304,#305,#306);
#308=CIRCLE('',#307,0.5);
#309=EDGE_CURVE('',#255,#296,#308,.T.);
#310=ORIENTED_EDGE('',*,*,#309,.F.);
#311=CARTESIAN_POINT('',(0.,0.,-38.));
#312=DIRECTION('',(0.,-0.,1.));
#313=DIRECTION('',(1.,0.,0.));
#314=AXIS2_PLACEMENT_3D('',#311,#312,#313);
#315=CIRCLE('',#314,75.);
#316=EDGE_CURVE('',#255,#263,#315,.T.);
#317=ORIENTED_EDGE('',*,*,#316,.T.);
#318=EDGE_LOOP('',(#294,#303,#310,#317));
#319=FACE_BOUND('',#318,.T.);
#320=ADVANCED_FACE('',(#319),#285,.T.);
#321=CARTESIAN_POINT('',(0.,0.,-37.5));
#322=DIRECTION('',(0.,0.,-1.));
#323=DIRECTION('',(1.,0.,0.));
#324=AXIS2_PLACEMENT_3D('',#321,#322,#323);
#325=PLANE('',#324);
#326=CARTESIAN_POINT('',(-25.5,0.,-37.5));
#327=VERTEX_POINT('',#326);
#328=CARTESIAN_POINT('',(25.5,-0.,-37.5));
#329=VERTEX_POINT('',#328);
#330=CARTESIAN_POINT('',(0.,0.,-37.5));
#331=DIRECTION('',(0.,0.,1.));
#332=DIRECTION('',(-1.,0.,0.));
#333=AXIS2_PLACEMENT_3D('',#330,#331,#332);
#334=CIRCLE('',#333,25.5);
#335=EDGE_CURVE('',#327,#329,#334,.T.);
#336=ORIENTED_EDGE('',*,*,#335,.F.);
#337=CARTESIAN_POINT('',(0.,0.,-37.5));
#338=DIRECTION('',(0.,0.,1.));
#339=DIRECTION('',(-1.,0.,0.));
#340=AXIS2_PLACEMENT_3D('',#337,#338,#339);
#341=CIRCLE('',#340,25.5);
#342=EDGE_CURVE('',#329,#327,#341,.T.);
#343=ORIENTED_EDGE('',*,*,#342,.F.);
#344=EDGE_LOOP('',(#336,#343));
#345=FACE_BOUND('',#344,.T.);
#346=CARTESIAN_POINT('',(0.,0.,-37.5));
#347=DIRECTION('',(0.,0.,-1.));
#348=DIRECTION('',(1.,0.,0.));
#349=AXIS2_PLACEMENT_3D('',#346,#347,#348);
#350=CIRCLE('',#349,74.5);
#351=EDGE_CURVE('',#296,#287,#350,.T.);
#352=ORIENTED_EDGE('',*,*,#351,.F.);
#353=ORIENTED_EDGE('',*,*,#302,.F.);
#354=EDGE_LOOP('',(#352,#353));
#355=FACE_BOUND('',#354,.T.);
#356=ADVANCED_FACE('',(#345,#355),#325,.F.);
#357=CARTESIAN_POINT('',(0.,0.,-37.));
#358=DIRECTION('',(0.,0.,1.));
#359=DIRECTION('',(1.,0.,-0.));
#360=AXIS2_PLACEMENT_3D('',#357,#358,#359);
#361=TOROIDAL_SURFACE('',#360,25.5,0.5);
#362=CARTESIAN_POINT('',(-25.,-0.,-37.));
#363=VERTEX_POINT('',#362);
#364=CARTESIAN_POINT('',(-25.5,0.,-37.));
#365=DIRECTION('',(-0.,-1.,-0.));
#366=DIRECTION('',(-1.,0.,0.));
#367=AXIS2_PLACEMENT_3D('',#364,#365,#366);
#368=CIRCLE('',#367,0.5);
#369=EDGE_CURVE('',#327,#363,#368,.T.);
#370=ORIENTED_EDGE('',*,*,#369,.F.);
#371=ORIENTED_EDGE('',*,*,#335,.T.);
#372=CARTESIAN_POINT('',(25.,0.,-37.));
#373=VERTEX_POINT('',#372);
#374=CARTESIAN_POINT('',(25.5,0.,-37.));
#375=DIRECTION('',(-0.,1.,0.));
#376=DIRECTION('',(1.,0.,0.));
#377=AXIS2_PLACEMENT_3D('',#374,#375,#376);
#378=CIRCLE('',#377,0.5);
#379=EDGE_CURVE('',#329,#373,#378,.T.);
#380=ORIENTED_EDGE('',*,*,#379,.T.);
#381=CARTESIAN_POINT('',(0.,0.,-37.));
#382=DIRECTION('',(0.,0.,-1.));
#383=DIRECTION('',(-1.,0.,0.));
#384=AXIS2_PLACEMENT_3D('',#381,#382,#383);
#385=CIRCLE('',#384,25.);
#386=EDGE_CURVE('',#373,#363,#385,.T.);
#387=ORIENTED_EDGE('',*,*,#386,.T.);
#388=EDGE_LOOP('',(#370,#371,#380,#387));
#389=FACE_BOUND('',#388,.T.);
#390=ADVANCED_FACE('',(#389),#361,.F.);
#391=CARTESIAN_POINT('',(0.,0.,-37.5));
#392=DIRECTION('',(0.,0.,1.));
#393=DIRECTION('',(1.,0.,-0.));
#394=AXIS2_PLACEMENT_3D('',#391,#392,#393);
#395=CYLINDRICAL_SURFACE('',#394,25.);
#396=CARTESIAN_POINT('',(-25.,0.,37.));
#397=VERTEX_POINT('',#396);
#398=CARTESIAN_POINT('',(-25.,0.,37.));
#399=DIRECTION('',(-0.,-0.,-1.));
#400=VECTOR('',#399,74.);
#401=LINE('',#398,#400);
#402=EDGE_CURVE('',#397,#363,#401,.T.);
#403=ORIENTED_EDGE('',*,*,#402,.T.);
#404=ORIENTED_EDGE('',*,*,#386,.F.);
#405=CARTESIAN_POINT('',(25.,-0.,37.));
#406=VERTEX_POINT('',#405);
#407=CARTESIAN_POINT('',(25.,0.,37.));
#408=DIRECTION('',(0.,0.,-1.));
#409=VECTOR('',#408,74.);
#410=LINE('',#407,#409);
#411=EDGE_CURVE('',#406,#373,#410,.T.);
#412=ORIENTED_EDGE('',*,*,#411,.F.);
#413=CARTESIAN_POINT('',(0.,0.,37.));
#414=DIRECTION('',(0.,0.,1.));
#415=DIRECTION('',(-1.,-0.,0.));
#416=AXIS2_PLACEMENT_3D('',#413,#414,#415);
#417=CIRCLE('',#416,25.);
#418=EDGE_CURVE('',#397,#406,#417,.T.);
#419=ORIENTED_EDGE('',*,*,#418,.F.);
#420=EDGE_LOOP('',(#403,#404,#412,#419));
#421=FACE_BOUND('',#420,.T.);
#422=ADVANCED_FACE('',(#421),#395,.T.);
#423=CARTESIAN_POINT('',(0.,0.,37.));
#424=DIRECTION('',(0.,0.,-1.));
#425=DIRECTION('',(1.,0.,0.));
#426=AXIS2_PLACEMENT_3D('',#423,#424,#425);
#427=TOROIDAL_SURFACE('',#426,25.5,0.5);
#428=CARTESIAN_POINT('',(-25.5,-0.,37.5));
#429=VERTEX_POINT('',#428);
#430=CARTESIAN_POINT('',(-25.5,-0.,37.));
#431=DIRECTION('',(-0.,1.,-0.));
#432=DIRECTION('',(-1.,-0.,0.));
#433=AXIS2_PLACEMENT_3D('',#430,#431,#432);
#434=CIRCLE('',#433,0.5);
#435=EDGE_CURVE('',#429,#397,#434,.T.);
#436=ORIENTED_EDGE('',*,*,#435,.F.);
#437=CARTESIAN_POINT('',(25.5,0.,37.5));
#438=VERTEX_POINT('',#437);
#439=CARTESIAN_POINT('',(0.,0.,37.5));
#440=DIRECTION('',(-0.,0.,-1.));
#441=DIRECTION('',(-1.,-0.,0.));
#442=AXIS2_PLACEMENT_3D('',#439,#440,#441);
#443=CIRCLE('',#442,25.5);
#444=EDGE_CURVE('',#429,#438,#443,.T.);
#445=ORIENTED_EDGE('',*,*,#444,.T.);
#446=CARTESIAN_POINT('',(25.5,0.,37.));
#447=DIRECTION('',(0.,-1.,0.));
#448=DIRECTION('',(1.,0.,0.));
#449=AXIS2_PLACEMENT_3D('',#446,#447,#448);
#450=CIRCLE('',#449,0.5);
#451=EDGE_CURVE('',#438,#406,#450,.T.);
#452=ORIENTED_EDGE('',*,*,#451,.T.);
#453=CARTESIAN_POINT('',(0.,0.,37.));
#454=DIRECTION('',(0.,0.,1.));
#455=DIRECTION('',(-1.,-0.,0.));
#456=AXIS2_PLACEMENT_3D('',#453,#454,#455);
#457=CIRCLE('',#456,25.);
#458=EDGE_CURVE('',#406,#397,#457,.T.);
#459=ORIENTED_EDGE('',*,*,#458,.T.);
#460=EDGE_LOOP('',(#436,#445,#452,#459));
#461=FACE_BOUND('',#460,.T.);
#462=ADVANCED_FACE('',(#461),#427,.F.);
#463=CARTESIAN_POINT('',(0.,0.,37.5));
#464=DIRECTION('',(0.,0.,1.));
#465=DIRECTION('',(1.,0.,0.));
#466=AXIS2_PLACEMENT_3D('',#463,#464,#465);
#467=PLANE('',#466);
#468=CARTESIAN_POINT('',(-74.5,0.,37.5));
#469=VERTEX_POINT('',#468);
#470=CARTESIAN_POINT('',(74.5,-0.,37.5));
#471=VERTEX_POINT('',#470);
#472=CARTESIAN_POINT('',(0.,0.,37.5));
#473=DIRECTION('',(0.,0.,1.));
#474=DIRECTION('',(-1.,0.,0.));
#475=AXIS2_PLACEMENT_3D('',#472,#473,#474);
#476=CIRCLE('',#475,74.5);
#477=EDGE_CURVE('',#469,#471,#476,.T.);
#478=ORIENTED_EDGE('',*,*,#477,.F.);
#479=CARTESIAN_POINT('',(0.,0.,37.5));
#480=DIRECTION('',(0.,0.,1.));
#481=DIRECTION('',(-1.,0.,0.));
#482=AXIS2_PLACEMENT_3D('',#479,#480,#481);
#483=CIRCLE('',#482,74.5);
#484=EDGE_CURVE('',#471,#469,#483,.T.);
#485=ORIENTED_EDGE('',*,*,#484,.F.);
#486=EDGE_LOOP('',(#478,#485));
#487=FACE_BOUND('',#486,.T.);
#488=ORIENTED_EDGE('',*,*,#444,.F.);
#489=CARTESIAN_POINT('',(0.,0.,37.5));
#490=DIRECTION('',(-0.,0.,-1.));
#491=DIRECTION('',(-1.,-0.,0.));
#492=AXIS2_PLACEMENT_3D('',#489,#490,#491);
#493=CIRCLE('',#492,25.5);
#494=EDGE_CURVE('',#438,#429,#493,.T.);
#495=ORIENTED_EDGE('',*,*,#494,.F.);
#496=EDGE_LOOP('',(#488,#495));
#497=FACE_BOUND('',#496,.T.);
#498=ADVANCED_FACE('',(#487,#497),#467,.F.);
#499=CARTESIAN_POINT('',(0.,0.,38.));
#500=DIRECTION('',(0.,0.,1.));
#501=DIRECTION('',(1.,0.,-0.));
#502=AXIS2_PLACEMENT_3D('',#499,#500,#501);
#503=TOROIDAL_SURFACE('',#502,74.5,0.5);
#504=CARTESIAN_POINT('',(-75.,-0.,38.));
#505=VERTEX_POINT('',#504);
#506=CARTESIAN_POINT('',(-74.5,0.,38.));
#507=DIRECTION('',(-0.,-1.,-0.));
#508=DIRECTION('',(-1.,0.,0.));
#509=AXIS2_PLACEMENT_3D('',#506,#507,#508);
#510=CIRCLE('',#509,0.5);
#511=EDGE_CURVE('',#505,#469,#510,.T.);
#512=ORIENTED_EDGE('',*,*,#511,.T.);
#513=ORIENTED_EDGE('',*,*,#477,.T.);
#514=CARTESIAN_POINT('',(75.,-0.,38.));
#515=VERTEX_POINT('',#514);
#516=CARTESIAN_POINT('',(74.5,0.,38.));
#517=DIRECTION('',(-0.,1.,0.));
#518=DIRECTION('',(1.,0.,0.));
#519=AXIS2_PLACEMENT_3D('',#516,#517,#518);
#520=CIRCLE('',#519,0.5);
#521=EDGE_CURVE('',#515,#471,#520,.T.);
#522=ORIENTED_EDGE('',*,*,#521,.F.);
#523=CARTESIAN_POINT('',(0.,0.,38.));
#524=DIRECTION('',(0.,0.,-1.));
#525=DIRECTION('',(-1.,0.,0.));
#526=AXIS2_PLACEMENT_3D('',#523,#524,#525);
#527=CIRCLE('',#526,75.);
#528=EDGE_CURVE('',#515,#505,#527,.T.);
#529=ORIENTED_EDGE('',*,*,#528,.T.);
#530=EDGE_LOOP('',(#512,#513,#522,#529));
#531=FACE_BOUND('',#530,.T.);
#532=ADVANCED_FACE('',(#531),#503,.T.);
#533=CARTESIAN_POINT('',(0.,0.,37.5));
#534=DIRECTION('',(0.,0.,1.));
#535=DIRECTION('',(1.,0.,-0.));
#536=AXIS2_PLACEMENT_3D('',#533,#534,#535);
#537=CYLINDRICAL_SURFACE('',#536,75.);
#538=CARTESIAN_POINT('',(-75.,0.,39.5));
#539=VERTEX_POINT('',#538);
#540=CARTESIAN_POINT('',(-75.,0.,39.5));
#541=DIRECTION('',(-0.,-0.,-1.));
#542=VECTOR('',#541,1.5);
#543=LINE('',#540,#542);
#544=EDGE_CURVE('',#539,#505,#543,.T.);
#545=ORIENTED_EDGE('',*,*,#544,.T.);
#546=ORIENTED_EDGE('',*,*,#528,.F.);
#547=CARTESIAN_POINT('',(75.,0.,39.5));
#548=VERTEX_POINT('',#547);
#549=CARTESIAN_POINT('',(75.,0.,39.5));
#550=DIRECTION('',(0.,0.,-1.));
#551=VECTOR('',#550,1.5);
#552=LINE('',#549,#551);
#553=EDGE_CURVE('',#548,#515,#552,.T.);
#554=ORIENTED_EDGE('',*,*,#553,.F.);
#555=CARTESIAN_POINT('',(0.,0.,39.5));
#556=DIRECTION('',(0.,0.,1.));
#557=DIRECTION('',(-1.,-0.,0.));
#558=AXIS2_PLACEMENT_3D('',#555,#556,#557);
#559=CIRCLE('',#558,75.);
#560=EDGE_CURVE('',#539,#548,#559,.T.);
#561=ORIENTED_EDGE('',*,*,#560,.F.);
#562=EDGE_LOOP('',(#545,#546,#554,#561));
#563=FACE_BOUND('',#562,.T.);
#564=ADVANCED_FACE('',(#563),#537,.T.);
#565=CARTESIAN_POINT('',(0.,0.,39.5));
#566=DIRECTION('',(0.,0.,-1.));
#567=DIRECTION('',(1.,0.,0.));
#568=AXIS2_PLACEMENT_3D('',#565,#566,#567);
#569=TOROIDAL_SURFACE('',#568,74.5,0.5);
#570=CARTESIAN_POINT('',(-74.5,-0.,39.5));
#571=DIRECTION('',(-0.,1.,-0.));
#572=DIRECTION('',(-1.,-0.,0.));
#573=AXIS2_PLACEMENT_3D('',#570,#571,#572);
#574=CIRCLE('',#573,0.5);
#575=EDGE_CURVE('',#539,#109,#574,.T.);
#576=ORIENTED_EDGE('',*,*,#575,.T.);
#577=ORIENTED_EDGE('',*,*,#117,.T.);
#578=CARTESIAN_POINT('',(74.5,0.,39.5));
#579=DIRECTION('',(0.,-1.,0.));
#580=DIRECTION('',(1.,0.,0.));
#581=AXIS2_PLACEMENT_3D('',#578,#579,#580);
#582=CIRCLE('',#581,0.5);
#583=EDGE_CURVE('',#548,#111,#582,.T.);
#584=ORIENTED_EDGE('',*,*,#583,.F.);
#585=CARTESIAN_POINT('',(0.,0.,39.5));
#586=DIRECTION('',(0.,0.,1.));
#587=DIRECTION('',(-1.,-0.,0.));
#588=AXIS2_PLACEMENT_3D('',#585,#586,#587);
#589=CIRCLE('',#588,75.);
#590=EDGE_CURVE('',#548,#539,#589,.T.);
#591=ORIENTED_EDGE('',*,*,#590,.T.);
#592=EDGE_LOOP('',(#576,#577,#584,#591));
#593=FACE_BOUND('',#592,.T.);
#594=ADVANCED_FACE('',(#593),#569,.T.);
#595=CARTESIAN_POINT('',(0.,0.,39.5));
#596=DIRECTION('',(0.,0.,1.));
#597=DIRECTION('',(1.,0.,-0.));
#598=AXIS2_PLACEMENT_3D('',#595,#596,#597);
#599=TOROIDAL_SURFACE('',#598,9.5,0.5);
#600=ORIENTED_EDGE('',*,*,#41,.F.);
#601=CARTESIAN_POINT('',(0.,0.,39.5));
#602=DIRECTION('',(0.,0.,-1.));
#603=DIRECTION('',(-1.,0.,0.));
#604=AXIS2_PLACEMENT_3D('',#601,#602,#603);
#605=CIRCLE('',#604,9.);
#606=EDGE_CURVE('',#33,#53,#605,.T.);
#607=ORIENTED_EDGE('',*,*,#606,.T.);
#608=ORIENTED_EDGE('',*,*,#59,.T.);
#609=ORIENTED_EDGE('',*,*,#134,.T.);
#610=EDGE_LOOP('',(#600,#607,#608,#609));
#611=FACE_BOUND('',#610,.T.);
#612=ADVANCED_FACE('',(#611),#599,.T.);
#613=CARTESIAN_POINT('',(0.,0.,-37.5));
#614=DIRECTION('',(0.,0.,1.));
#615=DIRECTION('',(1.,0.,-0.));
#616=AXIS2_PLACEMENT_3D('',#613,#614,#615);
#617=CYLINDRICAL_SURFACE('',#616,9.);
#618=ORIENTED_EDGE('',*,*,#82,.T.);
#619=ORIENTED_EDGE('',*,*,#174,.F.);
#620=ORIENTED_EDGE('',*,*,#91,.F.);
#621=ORIENTED_EDGE('',*,*,#606,.F.);
#622=EDGE_LOOP('',(#618,#619,#620,#621));
#623=FACE_BOUND('',#622,.T.);
#624=ADVANCED_FACE('',(#623),#617,.F.);
#625=CARTESIAN_POINT('',(0.,0.,-39.5));
#626=DIRECTION('',(0.,0.,-1.));
#627=DIRECTION('',(1.,0.,0.));
#628=AXIS2_PLACEMENT_3D('',#625,#626,#627);
#629=TOROIDAL_SURFACE('',#628,9.5,0.5);
#630=ORIENTED_EDGE('',*,*,#151,.F.);
#631=ORIENTED_EDGE('',*,*,#98,.T.);
#632=ORIENTED_EDGE('',*,*,#167,.T.);
#633=ORIENTED_EDGE('',*,*,#209,.T.);
#634=EDGE_LOOP('',(#630,#631,#632,#633));
#635=FACE_BOUND('',#634,.T.);
#636=ADVANCED_FACE('',(#635),#629,.T.);
#637=CARTESIAN_POINT('',(0.,0.,-39.5));
#638=DIRECTION('',(0.,0.,1.));
#639=DIRECTION('',(1.,0.,-0.));
#640=AXIS2_PLACEMENT_3D('',#637,#638,#639);
#641=TOROIDAL_SURFACE('',#640,74.5,0.5);
#642=ORIENTED_EDGE('',*,*,#227,.F.);
#643=CARTESIAN_POINT('',(0.,0.,-39.5));
#644=DIRECTION('',(0.,0.,-1.));
#645=DIRECTION('',(1.,-0.,0.));
#646=AXIS2_PLACEMENT_3D('',#643,#644,#645);
#647=CIRCLE('',#646,75.);
#648=EDGE_CURVE('',#221,#231,#647,.T.);
#649=ORIENTED_EDGE('',*,*,#648,.T.);
#650=ORIENTED_EDGE('',*,*,#237,.T.);
#651=ORIENTED_EDGE('',*,*,#193,.T.);
#652=EDGE_LOOP('',(#642,#649,#650,#651));
#653=FACE_BOUND('',#652,.T.);
#654=ADVANCED_FACE('',(#653),#641,.T.);
#655=CARTESIAN_POINT('',(0.,0.,-37.5));
#656=DIRECTION('',(0.,0.,-1.));
#657=DIRECTION('',(-1.,0.,0.));
#658=AXIS2_PLACEMENT_3D('',#655,#656,#657);
#659=CYLINDRICAL_SURFACE('',#658,75.);
#660=ORIENTED_EDGE('',*,*,#260,.F.);
#661=ORIENTED_EDGE('',*,*,#648,.F.);
#662=ORIENTED_EDGE('',*,*,#275,.T.);
#663=ORIENTED_EDGE('',*,*,#316,.F.);
#664=EDGE_LOOP('',(#660,#661,#662,#663));
#665=FACE_BOUND('',#664,.T.);
#666=ADVANCED_FACE('',(#665),#659,.T.);
#667=CARTESIAN_POINT('',(0.,0.,-38.));
#668=DIRECTION('',(0.,0.,-1.));
#669=DIRECTION('',(1.,0.,0.));
#670=AXIS2_PLACEMENT_3D('',#667,#668,#669);
#671=TOROIDAL_SURFACE('',#670,74.5,0.5);
#672=ORIENTED_EDGE('',*,*,#293,.F.);
#673=ORIENTED_EDGE('',*,*,#269,.T.);
#674=ORIENTED_EDGE('',*,*,#309,.T.);
#675=ORIENTED_EDGE('',*,*,#351,.T.);
#676=EDGE_LOOP('',(#672,#673,#674,#675));
#677=FACE_BOUND('',#676,.T.);
#678=ADVANCED_FACE('',(#677),#671,.T.);
#679=CARTESIAN_POINT('',(0.,0.,-37.));
#680=DIRECTION('',(0.,0.,1.));
#681=DIRECTION('',(1.,0.,-0.));
#682=AXIS2_PLACEMENT_3D('',#679,#680,#681);
#683=TOROIDAL_SURFACE('',#682,25.5,0.5);
#684=ORIENTED_EDGE('',*,*,#369,.T.);
#685=CARTESIAN_POINT('',(0.,0.,-37.));
#686=DIRECTION('',(0.,0.,-1.));
#687=DIRECTION('',(-1.,0.,0.));
#688=AXIS2_PLACEMENT_3D('',#685,#686,#687);
#689=CIRCLE('',#688,25.);
#690=EDGE_CURVE('',#363,#373,#689,.T.);
#691=ORIENTED_EDGE('',*,*,#690,.T.);
#692=ORIENTED_EDGE('',*,*,#379,.F.);
#693=ORIENTED_EDGE('',*,*,#342,.T.);
#694=EDGE_LOOP('',(#684,#691,#692,#693));
#695=FACE_BOUND('',#694,.T.);
#696=ADVANCED_FACE('',(#695),#683,.F.);
#697=CARTESIAN_POINT('',(0.,0.,-37.5));
#698=DIRECTION('',(0.,0.,1.));
#699=DIRECTION('',(1.,0.,-0.));
#700=AXIS2_PLACEMENT_3D('',#697,#698,#699);
#701=CYLINDRICAL_SURFACE('',#700,25.);
#702=ORIENTED_EDGE('',*,*,#402,.F.);
#703=ORIENTED_EDGE('',*,*,#458,.F.);
#704=ORIENTED_EDGE('',*,*,#411,.T.);
#705=ORIENTED_EDGE('',*,*,#690,.F.);
#706=EDGE_LOOP('',(#702,#703,#704,#705));
#707=FACE_BOUND('',#706,.T.);
#708=ADVANCED_FACE('',(#707),#701,.T.);
#709=CARTESIAN_POINT('',(0.,0.,37.));
#710=DIRECTION('',(0.,0.,-1.));
#711=DIRECTION('',(1.,0.,0.));
#712=AXIS2_PLACEMENT_3D('',#709,#710,#711);
#713=TOROIDAL_SURFACE('',#712,25.5,0.5);
#714=ORIENTED_EDGE('',*,*,#435,.T.);
#715=ORIENTED_EDGE('',*,*,#418,.T.);
#716=ORIENTED_EDGE('',*,*,#451,.F.);
#717=ORIENTED_EDGE('',*,*,#494,.T.);
#718=EDGE_LOOP('',(#714,#715,#716,#717));
#719=FACE_BOUND('',#718,.T.);
#720=ADVANCED_FACE('',(#719),#713,.F.);
#721=CARTESIAN_POINT('',(0.,0.,38.));
#722=DIRECTION('',(0.,0.,1.));
#723=DIRECTION('',(1.,0.,-0.));
#724=AXIS2_PLACEMENT_3D('',#721,#722,#723);
#725=TOROIDAL_SURFACE('',#724,74.5,0.5);
#726=ORIENTED_EDGE('',*,*,#511,.F.);
#727=CARTESIAN_POINT('',(0.,0.,38.));
#728=DIRECTION('',(0.,0.,-1.));
#729=DIRECTION('',(-1.,0.,0.));
#730=AXIS2_PLACEMENT_3D('',#727,#728,#729);
#731=CIRCLE('',#730,75.);
#732=EDGE_CURVE('',#505,#515,#731,.T.);
#733=ORIENTED_EDGE('',*,*,#732,.T.);
#734=ORIENTED_EDGE('',*,*,#521,.T.);
#735=ORIENTED_EDGE('',*,*,#484,.T.);
#736=EDGE_LOOP('',(#726,#733,#734,#735));
#737=FACE_BOUND('',#736,.T.);
#738=ADVANCED_FACE('',(#737),#725,.T.);
#739=CARTESIAN_POINT('',(0.,0.,37.5));
#740=DIRECTION('',(0.,0.,1.));
#741=DIRECTION('',(1.,0.,-0.));
#742=AXIS2_PLACEMENT_3D('',#739,#740,#741);
#743=CYLINDRICAL_SURFACE('',#742,75.);
#744=ORIENTED_EDGE('',*,*,#544,.F.);
#745=ORIENTED_EDGE('',*,*,#590,.F.);
#746=ORIENTED_EDGE('',*,*,#553,.T.);
#747=ORIENTED_EDGE('',*,*,#732,.F.);
#748=EDGE_LOOP('',(#744,#745,#746,#747));
#749=FACE_BOUND('',#748,.T.);
#750=ADVANCED_FACE('',(#749),#743,.T.);
#751=CARTESIAN_POINT('',(0.,0.,39.5));
#752=DIRECTION('',(0.,0.,-1.));
#753=DIRECTION('',(1.,0.,0.));
#754=AXIS2_PLACEMENT_3D('',#751,#752,#753);
#755=TOROIDAL_SURFACE('',#754,74.5,0.5);
#756=ORIENTED_EDGE('',*,*,#575,.F.);
#757=ORIENTED_EDGE('',*,*,#560,.T.);
#758=ORIENTED_EDGE('',*,*,#583,.T.);
#759=ORIENTED_EDGE('',*,*,#124,.T.);
#760=EDGE_LOOP('',(#756,#757,#758,#759));
#761=FACE_BOUND('',#760,.T.);
#762=ADVANCED_FACE('',(#761),#755,.T.);
#763=CLOSED_SHELL('',(#70,#102,#138,#178,#214,#248,#280,#320,#356,#390,#422,#462,#498,#532,#564,#594,#612,#624,#636,#654,#666,#678,#696,#708,#720,#738,
#750,#762));
#764=MANIFOLD_SOLID_BREP('alibrePartClosedBody',#763);
#765=COLOUR_RGB('',1.,0.501960814,0.);
#766=FILL_AREA_STYLE_COLOUR('',#765);
#767=FILL_AREA_STYLE('',(#766));
#768=SURFACE_STYLE_FILL_AREA(#767);
#769=SURFACE_SIDE_STYLE('',(#768));
#770=SURFACE_STYLE_USAGE(.BOTH.,#769);
#771=PRESENTATION_STYLE_ASSIGNMENT((#770));
#26=STYLED_ITEM('',(#771),#764);
#772=INTEGER_REPRESENTATION_ITEM('ATTRIB_BOUNDING_BOX_ALGORITHM',3);
#773=ID_ATTRIBUTE('SA #774',#774);
#774=SHAPE_ASPECT('properties','',#23,.F.);
#775=GEOMETRIC_ITEM_SPECIFIC_USAGE('','properties',#774,#17,#764);
#776=PROPERTY_DEFINITION('ATTRIB_BOUNDING_BOX_ALGORITHM','',#774);
#777=REPRESENTATION('',(#772),#10);
#778=PROPERTY_DEFINITION_REPRESENTATION(#776,#777);
#779=GENERAL_PROPERTY('','ATTRIB_BOUNDING_BOX_ALGORITHM','');
#780=GENERAL_PROPERTY_ASSOCIATION('','',#779,#776);
#16=SHAPE_REPRESENTATION('LAPP Wire spool DI=18mm DE=150mm W=80mm',(#15),#10);
#17=ADVANCED_BREP_SHAPE_REPRESENTATION('LAPP Wire spool DI=18mm DE=150mm W=80mm',(#764),#10);
#788=SHAPE_REPRESENTATION_RELATIONSHIP('','',#16,#17);
#789=CARTESIAN_POINT('',(0.,0.,0.));
#790=DIRECTION('',(0.,0.,1.));
#791=DIRECTION('',(1.,0.,0.));
#792=AXIS2_PLACEMENT_3D('',#789,#790,#791);
#794=MAPPED_ITEM('',#793,#792);
#793=REPRESENTATION_MAP(#792,#16);
#795=APPLICATION_CONTEXT('Managed model based 3d engineering');
#796=APPLICATION_PROTOCOL_DEFINITION('international standard','ap242_managed_model_based_3d_engineering',2013,#795);
#797=PRODUCT_CONTEXT('',#795,'mechanical');
#798=PRODUCT_DEFINITION_CONTEXT('part definition',#795,'design');
#24=PRODUCT('LAPP Wire spool DI=18mm DE=150mm W=80mm','LAPP Wire spool DI=18mm DE=150mm W=80mm','',(#797));
#799=PRODUCT_RELATED_PRODUCT_CATEGORY('part','',(#24));
#800=PRODUCT_DEFINITION_FORMATION_WITH_SPECIFIED_SOURCE('','',#24,.NOT_KNOWN.);
#25=PRODUCT_DEFINITION('design','',#800,#798);
#23=PRODUCT_DEFINITION_SHAPE('','',#25);
#801=SHAPE_DEFINITION_REPRESENTATION(#23,#16);
#11=DRAUGHTING_MODEL('',(#794),#10);
#1=MECHANICAL_DESIGN_GEOMETRIC_PRESENTATION_REPRESENTATION('',(#26),#10);
ENDSEC;
END-ISO-10303-21;
