ISO-10303-21;
HEADER;
/* Generated by software containing ST-Developer
 * from STEP Tools, Inc. (www.steptools.com) 
 */

FILE_DESCRIPTION(
/* description */ ('Alibre Inc.'),
/* implementation_level */ '2;1');

FILE_NAME(
/* name */ 'export-C2E180CF-E1CD-421D-AADD-7FCEC9D56FA9',
/* time_stamp */ '2019-10-24T13:47:34+02:00',
/* author */ (''),
/* organization */ (''),
/* preprocessor_version */ 'ST-DEVELOPER v17',
/* originating_system */ 'Alibre',
/* authorisation */ '');

FILE_SCHEMA (('AUTOMOTIVE_DESIGN'));
ENDSEC;

DATA;
#10=STYLED_ITEM('NAME_0',(#18),#385);
#11=MECHANICAL_DESIGN_GEOMETRIC_PRESENTATION_REPRESENTATION('NAME_0',(#10),
#33);
#12=COLOUR_RGB('',0.882352941176471,0.882352941176471,0.882352941176471);
#13=FILL_AREA_STYLE_COLOUR('NAME_0',#12);
#14=FILL_AREA_STYLE('NAME_0',(#13));
#15=SURFACE_STYLE_FILL_AREA(#14);
#16=SURFACE_SIDE_STYLE('NAME_0',(#15));
#17=SURFACE_STYLE_USAGE(.POSITIVE.,#16);
#18=PRESENTATION_STYLE_ASSIGNMENT((#17));
#19=PRODUCT_DEFINITION_CONTEXT('part definition',#26,'design');
#20=SHAPE_DEFINITION_REPRESENTATION(#21,#386);
#21=PRODUCT_DEFINITION_SHAPE('PRODUCT_VERSION_ID',
'PRODUCT_VERSION_DESCR',#22);
#22=PRODUCT_DEFINITION('PRODUCT_VERSION_ID','PRODUCT_VERSION_DESCR',#23,
#19);
#23=PRODUCT_DEFINITION_FORMATION_WITH_SPECIFIED_SOURCE(
'PRODUCT_VERSION_ID','PRODUCT_VERSION_DESCR',#28,.MADE.);
#24=PRODUCT_RELATED_PRODUCT_CATEGORY('part','part',(#28));
#25=APPLICATION_PROTOCOL_DEFINITION('Draft International Standard',
'automotive_design',1994,#26);
#26=APPLICATION_CONTEXT('automotive_Design');
#27=PRODUCT_CONTEXT('3D Mechanical Parts',#26,'mechanical');
#28=PRODUCT('','4261 Sensor Activator with countersunk holes','',(#27));
#29=(
LENGTH_UNIT()
NAMED_UNIT(*)
SI_UNIT(.CENTI.,.METRE.)
);
#30=(
NAMED_UNIT(*)
PLANE_ANGLE_UNIT()
SI_UNIT($,.RADIAN.)
);
#31=(
NAMED_UNIT(*)
SI_UNIT($,.STERADIAN.)
SOLID_ANGLE_UNIT()
);
#32=UNCERTAINTY_MEASURE_WITH_UNIT(LENGTH_MEASURE(1.E-6),#29,
'DISTANCE_ACCURACY_VALUE',
'Maximum model space distance between geometric entities at asserted c
onnectivities');
#33=(
GEOMETRIC_REPRESENTATION_CONTEXT(3)
GLOBAL_UNCERTAINTY_ASSIGNED_CONTEXT((#32))
GLOBAL_UNIT_ASSIGNED_CONTEXT((#31,#30,#29))
REPRESENTATION_CONTEXT('ID1','3D')
);
#34=CONICAL_SURFACE('',#255,0.44,0.78539816339745);
#35=CONICAL_SURFACE('',#257,0.44,0.78539816339745);
#36=PLANE('',#241);
#37=PLANE('',#247);
#38=PLANE('',#252);
#39=PLANE('',#259);
#40=PLANE('',#260);
#41=PLANE('',#261);
#42=VECTOR('',#266,1.);
#43=VECTOR('',#269,1.);
#44=VECTOR('',#275,1.);
#45=VECTOR('',#278,1.);
#46=VECTOR('',#281,1.);
#47=VECTOR('',#284,1.);
#48=VECTOR('',#286,1.);
#49=VECTOR('',#287,1.);
#50=VECTOR('',#292,1.);
#51=VECTOR('',#297,1.);
#52=VECTOR('',#298,1.);
#53=VECTOR('',#300,1.);
#54=VECTOR('',#301,1.);
#55=VECTOR('',#306,1.);
#56=VECTOR('',#316,1.);
#57=VECTOR('',#318,1.);
#58=LINE('',#324,#42);
#59=LINE('',#328,#43);
#60=LINE('',#334,#44);
#61=LINE('',#338,#45);
#62=LINE('',#342,#46);
#63=LINE('',#346,#47);
#64=LINE('',#348,#48);
#65=LINE('',#350,#49);
#66=LINE('',#354,#50);
#67=LINE('',#359,#51);
#68=LINE('',#360,#52);
#69=LINE('',#362,#53);
#70=LINE('',#364,#54);
#71=LINE('',#368,#55);
#72=LINE('',#376,#56);
#73=LINE('',#378,#57);
#74=VERTEX_POINT('',#322);
#75=VERTEX_POINT('',#323);
#76=VERTEX_POINT('',#325);
#77=VERTEX_POINT('',#327);
#78=VERTEX_POINT('',#331);
#79=VERTEX_POINT('',#333);
#80=VERTEX_POINT('',#335);
#81=VERTEX_POINT('',#337);
#82=VERTEX_POINT('',#339);
#83=VERTEX_POINT('',#341);
#84=VERTEX_POINT('',#343);
#85=VERTEX_POINT('',#345);
#86=VERTEX_POINT('',#349);
#87=VERTEX_POINT('',#353);
#88=VERTEX_POINT('',#357);
#89=VERTEX_POINT('',#358);
#90=VERTEX_POINT('',#363);
#91=VERTEX_POINT('',#367);
#92=VERTEX_POINT('',#371);
#93=VERTEX_POINT('',#374);
#94=CIRCLE('',#239,0.2);
#95=CIRCLE('',#240,0.2);
#96=CIRCLE('',#242,0.289999999999999);
#97=CIRCLE('',#243,0.289999999999999);
#98=CIRCLE('',#244,0.2);
#99=CIRCLE('',#245,0.2);
#100=CIRCLE('',#246,0.2);
#101=CIRCLE('',#249,0.2);
#102=CIRCLE('',#251,0.2);
#103=CIRCLE('',#254,0.2);
#104=CIRCLE('',#256,0.44);
#105=CIRCLE('',#258,0.44);
#106=EDGE_CURVE('',#74,#75,#94,.T.);
#107=EDGE_CURVE('',#75,#76,#58,.T.);
#108=EDGE_CURVE('',#76,#77,#95,.T.);
#109=EDGE_CURVE('',#77,#74,#59,.T.);
#110=EDGE_CURVE('',#78,#78,#96,.T.);
#111=EDGE_CURVE('',#79,#79,#97,.T.);
#112=EDGE_CURVE('',#80,#76,#60,.T.);
#113=EDGE_CURVE('',#81,#80,#98,.T.);
#114=EDGE_CURVE('',#82,#81,#61,.T.);
#115=EDGE_CURVE('',#83,#82,#99,.T.);
#116=EDGE_CURVE('',#84,#83,#62,.T.);
#117=EDGE_CURVE('',#85,#84,#100,.T.);
#118=EDGE_CURVE('',#77,#85,#63,.T.);
#119=EDGE_CURVE('',#75,#86,#64,.T.);
#120=EDGE_CURVE('',#80,#86,#65,.T.);
#121=EDGE_CURVE('',#86,#87,#101,.T.);
#122=EDGE_CURVE('',#87,#81,#66,.T.);
#123=EDGE_CURVE('',#88,#89,#102,.T.);
#124=EDGE_CURVE('',#89,#85,#67,.T.);
#125=EDGE_CURVE('',#84,#88,#68,.T.);
#126=EDGE_CURVE('',#90,#83,#69,.T.);
#127=EDGE_CURVE('',#90,#88,#70,.T.);
#128=EDGE_CURVE('',#91,#90,#103,.T.);
#129=EDGE_CURVE('',#82,#91,#71,.T.);
#130=EDGE_CURVE('',#92,#92,#104,.T.);
#131=EDGE_CURVE('',#93,#93,#105,.T.);
#132=EDGE_CURVE('',#87,#91,#72,.T.);
#133=EDGE_CURVE('',#89,#74,#73,.T.);
#134=ORIENTED_EDGE('',*,*,#106,.T.);
#135=ORIENTED_EDGE('',*,*,#107,.T.);
#136=ORIENTED_EDGE('',*,*,#108,.T.);
#137=ORIENTED_EDGE('',*,*,#109,.T.);
#138=ORIENTED_EDGE('',*,*,#110,.T.);
#139=ORIENTED_EDGE('',*,*,#111,.T.);
#140=ORIENTED_EDGE('',*,*,#108,.F.);
#141=ORIENTED_EDGE('',*,*,#112,.F.);
#142=ORIENTED_EDGE('',*,*,#113,.F.);
#143=ORIENTED_EDGE('',*,*,#114,.F.);
#144=ORIENTED_EDGE('',*,*,#115,.F.);
#145=ORIENTED_EDGE('',*,*,#116,.F.);
#146=ORIENTED_EDGE('',*,*,#117,.F.);
#147=ORIENTED_EDGE('',*,*,#118,.F.);
#148=ORIENTED_EDGE('',*,*,#107,.F.);
#149=ORIENTED_EDGE('',*,*,#119,.T.);
#150=ORIENTED_EDGE('',*,*,#120,.F.);
#151=ORIENTED_EDGE('',*,*,#112,.T.);
#152=ORIENTED_EDGE('',*,*,#121,.T.);
#153=ORIENTED_EDGE('',*,*,#122,.T.);
#154=ORIENTED_EDGE('',*,*,#113,.T.);
#155=ORIENTED_EDGE('',*,*,#120,.T.);
#156=ORIENTED_EDGE('',*,*,#123,.T.);
#157=ORIENTED_EDGE('',*,*,#124,.T.);
#158=ORIENTED_EDGE('',*,*,#117,.T.);
#159=ORIENTED_EDGE('',*,*,#125,.T.);
#160=ORIENTED_EDGE('',*,*,#125,.F.);
#161=ORIENTED_EDGE('',*,*,#116,.T.);
#162=ORIENTED_EDGE('',*,*,#126,.F.);
#163=ORIENTED_EDGE('',*,*,#127,.T.);
#164=ORIENTED_EDGE('',*,*,#128,.T.);
#165=ORIENTED_EDGE('',*,*,#126,.T.);
#166=ORIENTED_EDGE('',*,*,#115,.T.);
#167=ORIENTED_EDGE('',*,*,#129,.T.);
#168=ORIENTED_EDGE('',*,*,#110,.F.);
#169=ORIENTED_EDGE('',*,*,#130,.F.);
#170=ORIENTED_EDGE('',*,*,#111,.F.);
#171=ORIENTED_EDGE('',*,*,#131,.F.);
#172=ORIENTED_EDGE('',*,*,#122,.F.);
#173=ORIENTED_EDGE('',*,*,#132,.T.);
#174=ORIENTED_EDGE('',*,*,#129,.F.);
#175=ORIENTED_EDGE('',*,*,#114,.T.);
#176=ORIENTED_EDGE('',*,*,#109,.F.);
#177=ORIENTED_EDGE('',*,*,#118,.T.);
#178=ORIENTED_EDGE('',*,*,#124,.F.);
#179=ORIENTED_EDGE('',*,*,#133,.T.);
#180=ORIENTED_EDGE('',*,*,#106,.F.);
#181=ORIENTED_EDGE('',*,*,#133,.F.);
#182=ORIENTED_EDGE('',*,*,#123,.F.);
#183=ORIENTED_EDGE('',*,*,#127,.F.);
#184=ORIENTED_EDGE('',*,*,#128,.F.);
#185=ORIENTED_EDGE('',*,*,#132,.F.);
#186=ORIENTED_EDGE('',*,*,#121,.F.);
#187=ORIENTED_EDGE('',*,*,#119,.F.);
#188=ORIENTED_EDGE('',*,*,#130,.T.);
#189=ORIENTED_EDGE('',*,*,#131,.T.);
#190=EDGE_LOOP('',(#134,#135,#136,#137));
#191=EDGE_LOOP('',(#138));
#192=EDGE_LOOP('',(#139));
#193=EDGE_LOOP('',(#140,#141,#142,#143,#144,#145,#146,#147));
#194=EDGE_LOOP('',(#148,#149,#150,#151));
#195=EDGE_LOOP('',(#152,#153,#154,#155));
#196=EDGE_LOOP('',(#156,#157,#158,#159));
#197=EDGE_LOOP('',(#160,#161,#162,#163));
#198=EDGE_LOOP('',(#164,#165,#166,#167));
#199=EDGE_LOOP('',(#168));
#200=EDGE_LOOP('',(#169));
#201=EDGE_LOOP('',(#170));
#202=EDGE_LOOP('',(#171));
#203=EDGE_LOOP('',(#172,#173,#174,#175));
#204=EDGE_LOOP('',(#176,#177,#178,#179));
#205=EDGE_LOOP('',(#180,#181,#182,#183,#184,#185,#186,#187));
#206=EDGE_LOOP('',(#188));
#207=EDGE_LOOP('',(#189));
#208=FACE_BOUND('',#190,.T.);
#209=FACE_BOUND('',#191,.T.);
#210=FACE_BOUND('',#192,.T.);
#211=FACE_BOUND('',#193,.T.);
#212=FACE_BOUND('',#194,.T.);
#213=FACE_BOUND('',#195,.T.);
#214=FACE_BOUND('',#196,.T.);
#215=FACE_BOUND('',#197,.T.);
#216=FACE_BOUND('',#198,.T.);
#217=FACE_BOUND('',#199,.T.);
#218=FACE_BOUND('',#200,.T.);
#219=FACE_BOUND('',#201,.T.);
#220=FACE_BOUND('',#202,.T.);
#221=FACE_BOUND('',#203,.T.);
#222=FACE_BOUND('',#204,.T.);
#223=FACE_BOUND('',#205,.T.);
#224=FACE_BOUND('',#206,.T.);
#225=FACE_BOUND('',#207,.T.);
#226=ADVANCED_FACE('',(#208),#380,.T.);
#227=ADVANCED_FACE('',(#209,#210,#211),#36,.F.);
#228=ADVANCED_FACE('',(#212),#37,.T.);
#229=ADVANCED_FACE('',(#213),#381,.T.);
#230=ADVANCED_FACE('',(#214),#382,.T.);
#231=ADVANCED_FACE('',(#215),#38,.T.);
#232=ADVANCED_FACE('',(#216),#383,.T.);
#233=ADVANCED_FACE('',(#217,#218),#34,.F.);
#234=ADVANCED_FACE('',(#219,#220),#35,.F.);
#235=ADVANCED_FACE('',(#221),#39,.T.);
#236=ADVANCED_FACE('',(#222),#40,.T.);
#237=ADVANCED_FACE('',(#223,#224,#225),#41,.T.);
#238=AXIS2_PLACEMENT_3D('',#320,#262,#263);
#239=AXIS2_PLACEMENT_3D('',#321,#264,#265);
#240=AXIS2_PLACEMENT_3D('',#326,#267,#268);
#241=AXIS2_PLACEMENT_3D('',#329,#270,$);
#242=AXIS2_PLACEMENT_3D('',#330,#271,#272);
#243=AXIS2_PLACEMENT_3D('',#332,#273,#274);
#244=AXIS2_PLACEMENT_3D('',#336,#276,#277);
#245=AXIS2_PLACEMENT_3D('',#340,#279,#280);
#246=AXIS2_PLACEMENT_3D('',#344,#282,#283);
#247=AXIS2_PLACEMENT_3D('',#347,#285,$);
#248=AXIS2_PLACEMENT_3D('',#351,#288,#289);
#249=AXIS2_PLACEMENT_3D('',#352,#290,#291);
#250=AXIS2_PLACEMENT_3D('',#355,#293,#294);
#251=AXIS2_PLACEMENT_3D('',#356,#295,#296);
#252=AXIS2_PLACEMENT_3D('',#361,#299,$);
#253=AXIS2_PLACEMENT_3D('',#365,#302,#303);
#254=AXIS2_PLACEMENT_3D('',#366,#304,#305);
#255=AXIS2_PLACEMENT_3D('',#369,#307,#308);
#256=AXIS2_PLACEMENT_3D('',#370,#309,#310);
#257=AXIS2_PLACEMENT_3D('',#372,#311,#312);
#258=AXIS2_PLACEMENT_3D('',#373,#313,#314);
#259=AXIS2_PLACEMENT_3D('',#375,#315,$);
#260=AXIS2_PLACEMENT_3D('',#377,#317,$);
#261=AXIS2_PLACEMENT_3D('',#379,#319,$);
#262=DIRECTION('',(0.,0.,1.));
#263=DIRECTION('',(0.141421356237309,-0.14142135623731,0.));
#264=DIRECTION('',(0.,0.,-1.));
#265=DIRECTION('',(0.141421356237309,-0.14142135623731,0.));
#266=DIRECTION('',(0.,0.,-1.));
#267=DIRECTION('',(0.,0.,1.));
#268=DIRECTION('',(0.141421356237309,-0.14142135623731,0.));
#269=DIRECTION('',(0.,0.,1.));
#270=DIRECTION('',(0.,0.,1.));
#271=DIRECTION('',(0.,0.,1.));
#272=DIRECTION('',(0.,0.289999999999999,0.));
#273=DIRECTION('',(0.,0.,1.));
#274=DIRECTION('',(0.,0.289999999999999,0.));
#275=DIRECTION('',(1.,0.,0.));
#276=DIRECTION('',(0.,0.,1.));
#277=DIRECTION('',(-0.14142135623731,-0.14142135623731,0.));
#278=DIRECTION('',(9.86076131526265E-32,-1.,0.));
#279=DIRECTION('',(0.,0.,1.));
#280=DIRECTION('',(-0.14142135623731,0.14142135623731,0.));
#281=DIRECTION('',(-1.,-2.59052039079203E-16,0.));
#282=DIRECTION('',(0.,0.,1.));
#283=DIRECTION('',(0.14142135623731,0.141421356237309,0.));
#284=DIRECTION('',(-4.44089209850062E-16,1.,0.));
#285=DIRECTION('',(0.,-1.,0.));
#286=DIRECTION('',(-1.,0.,0.));
#287=DIRECTION('',(0.,0.,1.));
#288=DIRECTION('',(0.,0.,1.));
#289=DIRECTION('',(-0.14142135623731,-0.14142135623731,0.));
#290=DIRECTION('',(0.,0.,-1.));
#291=DIRECTION('',(-0.14142135623731,-0.14142135623731,0.));
#292=DIRECTION('',(0.,0.,-1.));
#293=DIRECTION('',(0.,0.,1.));
#294=DIRECTION('',(0.14142135623731,0.141421356237309,0.));
#295=DIRECTION('',(0.,0.,-1.));
#296=DIRECTION('',(0.14142135623731,0.141421356237309,0.));
#297=DIRECTION('',(0.,0.,-1.));
#298=DIRECTION('',(0.,0.,1.));
#299=DIRECTION('',(-2.59052039079203E-16,1.,0.));
#300=DIRECTION('',(0.,0.,-1.));
#301=DIRECTION('',(1.,2.59052039079203E-16,0.));
#302=DIRECTION('',(0.,0.,1.));
#303=DIRECTION('',(-0.14142135623731,0.14142135623731,0.));
#304=DIRECTION('',(0.,0.,-1.));
#305=DIRECTION('',(-0.14142135623731,0.14142135623731,0.));
#306=DIRECTION('',(0.,0.,1.));
#307=DIRECTION('',(0.,0.,1.));
#308=DIRECTION('',(0.,0.44,0.));
#309=DIRECTION('',(0.,0.,-1.));
#310=DIRECTION('',(0.,0.44,0.));
#311=DIRECTION('',(0.,0.,1.));
#312=DIRECTION('',(0.,0.44,0.));
#313=DIRECTION('',(0.,0.,-1.));
#314=DIRECTION('',(0.,0.44,0.));
#315=DIRECTION('',(-1.,-9.86076131526265E-32,0.));
#316=DIRECTION('',(-9.86076131526265E-32,1.,0.));
#317=DIRECTION('',(1.,4.44089209850062E-16,0.));
#318=DIRECTION('',(4.44089209850062E-16,-1.,0.));
#319=DIRECTION('',(0.,0.,1.));
#320=CARTESIAN_POINT('',(5.8,0.2,0.));
#321=CARTESIAN_POINT('',(5.8,0.2,0.15));
#322=CARTESIAN_POINT('',(6.,0.2,0.15));
#323=CARTESIAN_POINT('',(5.8,0.,0.15));
#324=CARTESIAN_POINT('',(5.8,0.,0.));
#325=CARTESIAN_POINT('',(5.8,0.,0.));
#326=CARTESIAN_POINT('',(5.8,0.2,0.));
#327=CARTESIAN_POINT('',(6.,0.2,0.));
#328=CARTESIAN_POINT('',(6.,0.2,0.));
#329=CARTESIAN_POINT('',(3.,1.,0.));
#330=CARTESIAN_POINT('',(5.00000000000001,0.999999999999999,0.));
#331=CARTESIAN_POINT('',(5.00000000000001,0.71,0.));
#332=CARTESIAN_POINT('',(1.,0.999999999999999,0.));
#333=CARTESIAN_POINT('',(1.,0.71,0.));
#334=CARTESIAN_POINT('',(0.,0.,0.));
#335=CARTESIAN_POINT('',(0.2,0.,0.));
#336=CARTESIAN_POINT('',(0.2,0.2,0.));
#337=CARTESIAN_POINT('',(-1.97215226305253E-32,0.2,0.));
#338=CARTESIAN_POINT('',(-1.97215226305253E-31,2.,0.));
#339=CARTESIAN_POINT('',(-1.77493703674728E-31,1.8,0.));
#340=CARTESIAN_POINT('',(0.2,1.8,0.));
#341=CARTESIAN_POINT('',(0.2,2.,0.));
#342=CARTESIAN_POINT('',(6.,2.,0.));
#343=CARTESIAN_POINT('',(5.8,2.,0.));
#344=CARTESIAN_POINT('',(5.8,1.8,0.));
#345=CARTESIAN_POINT('',(6.,1.8,0.));
#346=CARTESIAN_POINT('',(6.,0.,0.));
#347=CARTESIAN_POINT('',(3.,0.,0.));
#348=CARTESIAN_POINT('',(0.,0.,0.15));
#349=CARTESIAN_POINT('',(0.2,0.,0.15));
#350=CARTESIAN_POINT('',(0.2,0.,0.));
#351=CARTESIAN_POINT('',(0.2,0.2,0.));
#352=CARTESIAN_POINT('',(0.2,0.2,0.15));
#353=CARTESIAN_POINT('',(-1.97215226305253E-32,0.2,0.15));
#354=CARTESIAN_POINT('',(0.,0.2,0.));
#355=CARTESIAN_POINT('',(5.8,1.8,0.));
#356=CARTESIAN_POINT('',(5.8,1.8,0.15));
#357=CARTESIAN_POINT('',(5.8,2.,0.15));
#358=CARTESIAN_POINT('',(6.,1.8,0.15));
#359=CARTESIAN_POINT('',(6.,1.8,0.));
#360=CARTESIAN_POINT('',(5.8,2.,0.));
#361=CARTESIAN_POINT('',(3.,2.,0.));
#362=CARTESIAN_POINT('',(0.2,2.,0.));
#363=CARTESIAN_POINT('',(0.2,2.,0.15));
#364=CARTESIAN_POINT('',(6.,2.,0.15));
#365=CARTESIAN_POINT('',(0.2,1.8,0.));
#366=CARTESIAN_POINT('',(0.2,1.8,0.15));
#367=CARTESIAN_POINT('',(-1.77493703674728E-31,1.8,0.15));
#368=CARTESIAN_POINT('',(0.,1.8,0.));
#369=CARTESIAN_POINT('',(5.00000000000001,0.999999999999999,0.15));
#370=CARTESIAN_POINT('',(5.00000000000001,0.999999999999999,0.15));
#371=CARTESIAN_POINT('',(5.00000000000001,1.44,0.15));
#372=CARTESIAN_POINT('',(1.,0.999999999999999,0.15));
#373=CARTESIAN_POINT('',(1.,0.999999999999999,0.15));
#374=CARTESIAN_POINT('',(1.,1.44,0.15));
#375=CARTESIAN_POINT('',(-9.86076131526265E-32,1.,0.));
#376=CARTESIAN_POINT('',(-1.97215226305253E-31,2.,0.15));
#377=CARTESIAN_POINT('',(6.,1.,0.));
#378=CARTESIAN_POINT('',(6.,0.,0.15));
#379=CARTESIAN_POINT('',(3.,1.,0.15));
#380=CYLINDRICAL_SURFACE('',#238,0.2);
#381=CYLINDRICAL_SURFACE('',#248,0.2);
#382=CYLINDRICAL_SURFACE('',#250,0.2);
#383=CYLINDRICAL_SURFACE('',#253,0.2);
#384=CLOSED_SHELL('',(#226,#227,#228,#229,#230,#231,#232,#233,#234,#235,
#236,#237));
#385=MANIFOLD_SOLID_BREP('',#384);
#386=ADVANCED_BREP_SHAPE_REPRESENTATION('',(#385),#33);
ENDSEC;
END-ISO-10303-21;
