ISO-10303-21;
HEADER;

/* File generated by Alibre Version V23 */

FILE_DESCRIPTION(('HOOPS Exchange Step'),'2;1');

FILE_NAME('C:\\Users\\Gebruiker\\AppData\\Local\\Temp\\Alibre Design\\export-8D240337-C0A1-4B0E-96C5-8D6311DA0213.stp',
'2023-04-27T17:44:17+02:00',
('Engineering'),
('Alibre'),
'HOOPS Exchange 2021.0',
'Alibre',
'Unknown authorisation');

FILE_SCHEMA( ('AP242_MANAGED_MODEL_BASED_3D_ENGINEERING_MIM_LF {1 0 10303 442 1 1 4 }') );

ENDSEC;

DATA;
#3=(NAMED_UNIT(*)PLANE_ANGLE_UNIT()SI_UNIT($,.RADIAN.));
#4=PLANE_ANGLE_MEASURE_WITH_UNIT(PLANE_ANGLE_MEASURE(0.0174532925),#3);
#5=(CONVERSION_BASED_UNIT('DEGREE',#4)NAMED_UNIT(#6)PLANE_ANGLE_UNIT());
#6=DIMENSIONAL_EXPONENTS(0.,0.,0.,0.,0.,0.,0.);
#7=(NAMED_UNIT(*)SI_UNIT($,.STERADIAN.)SOLID_ANGLE_UNIT());
#8=(LENGTH_UNIT()NAMED_UNIT(*)SI_UNIT(.MILLI.,.METRE.));
#9=UNCERTAINTY_MEASURE_WITH_UNIT(LENGTH_MEASURE(1.000000E-06),#8,'DISTANCE_ACCURACY_VALUE','Maximum Tolerance applied to model');
#10=(GEOMETRIC_REPRESENTATION_CONTEXT(3)GLOBAL_UNCERTAINTY_ASSIGNED_CONTEXT((#9))GLOBAL_UNIT_ASSIGNED_CONTEXT((#8,#5,#7))REPRESENTATION_CONTEXT('','4363 EPS and Foams CNC Milling Cutter Round Tip 3.83 inch 98mm'));
#12=CARTESIAN_POINT('',(0.,0.,0.));
#13=DIRECTION('',(0.,0.,1.));
#14=DIRECTION('',(1.,0.,0.));
#15=AXIS2_PLACEMENT_3D('',#12,#13,#14);
#27=CARTESIAN_POINT('',(0.,-37.5,0.));
#28=DIRECTION('',(0.,-1.,0.));
#29=DIRECTION('',(1.,0.,0.));
#30=AXIS2_PLACEMENT_3D('',#27,#28,#29);
#31=CONICAL_SURFACE('',#30,10.,45.);
#32=CARTESIAN_POINT('',(-9.5,-37.,-0.));
#33=VERTEX_POINT('',#32);
#34=CARTESIAN_POINT('',(-10.,-37.5,0.));
#35=VERTEX_POINT('',#34);
#36=CARTESIAN_POINT('',(-9.5,-37.,0.));
#37=DIRECTION('',(-0.707106781,-0.707106781,0.));
#38=VECTOR('',#37,0.707106781);
#39=LINE('',#36,#38);
#40=EDGE_CURVE('',#33,#35,#39,.T.);
#41=ORIENTED_EDGE('',*,*,#40,.T.);
#42=CARTESIAN_POINT('',(0.,-37.5,0.));
#43=DIRECTION('',(-0.,1.,0.));
#44=DIRECTION('',(1.,0.,0.));
#45=AXIS2_PLACEMENT_3D('',#42,#43,#44);
#46=CIRCLE('',#45,10.);
#47=EDGE_CURVE('',#35,#35,#46,.T.);
#48=ORIENTED_EDGE('',*,*,#47,.T.);
#49=ORIENTED_EDGE('',*,*,#40,.F.);
#50=CARTESIAN_POINT('',(9.5,-37.,0.));
#51=VERTEX_POINT('',#50);
#52=CARTESIAN_POINT('',(0.,-37.,0.));
#53=DIRECTION('',(0.,-1.,0.));
#54=DIRECTION('',(1.,0.,0.));
#55=AXIS2_PLACEMENT_3D('',#52,#53,#54);
#56=CIRCLE('',#55,9.5);
#57=EDGE_CURVE('',#33,#51,#56,.T.);
#58=ORIENTED_EDGE('',*,*,#57,.T.);
#59=CARTESIAN_POINT('',(0.,-37.,0.));
#60=DIRECTION('',(0.,-1.,0.));
#61=DIRECTION('',(1.,0.,0.));
#62=AXIS2_PLACEMENT_3D('',#59,#60,#61);
#63=CIRCLE('',#62,9.5);
#64=EDGE_CURVE('',#51,#33,#63,.T.);
#65=ORIENTED_EDGE('',*,*,#64,.T.);
#66=EDGE_LOOP('',(#41,#48,#49,#58,#65));
#67=FACE_BOUND('',#66,.T.);
#68=ADVANCED_FACE('',(#67),#31,.T.);
#69=CARTESIAN_POINT('',(0.,-18.75,0.));
#70=DIRECTION('',(0.,1.,0.));
#71=DIRECTION('',(-1.,0.,0.));
#72=AXIS2_PLACEMENT_3D('',#69,#70,#71);
#73=CYLINDRICAL_SURFACE('',#72,9.5);
#74=CARTESIAN_POINT('',(9.5,-0.5,0.));
#75=VERTEX_POINT('',#74);
#76=CARTESIAN_POINT('',(9.5,-0.5,0.));
#77=DIRECTION('',(0.,-1.,-0.));
#78=VECTOR('',#77,36.5);
#79=LINE('',#76,#78);
#80=EDGE_CURVE('',#75,#51,#79,.T.);
#81=ORIENTED_EDGE('',*,*,#80,.T.);
#82=ORIENTED_EDGE('',*,*,#57,.F.);
#83=ORIENTED_EDGE('',*,*,#64,.F.);
#84=ORIENTED_EDGE('',*,*,#80,.F.);
#85=CARTESIAN_POINT('',(-9.5,-0.5,0.));
#86=VERTEX_POINT('',#85);
#87=CARTESIAN_POINT('',(0.,-0.5,0.));
#88=DIRECTION('',(-0.,1.,0.));
#89=DIRECTION('',(1.,0.,0.));
#90=AXIS2_PLACEMENT_3D('',#87,#88,#89);
#91=CIRCLE('',#90,9.5);
#92=EDGE_CURVE('',#86,#75,#91,.T.);
#93=ORIENTED_EDGE('',*,*,#92,.F.);
#94=CARTESIAN_POINT('',(0.,-0.5,0.));
#95=DIRECTION('',(-0.,1.,0.));
#96=DIRECTION('',(1.,0.,0.));
#97=AXIS2_PLACEMENT_3D('',#94,#95,#96);
#98=CIRCLE('',#97,9.5);
#99=EDGE_CURVE('',#75,#86,#98,.T.);
#100=ORIENTED_EDGE('',*,*,#99,.F.);
#101=EDGE_LOOP('',(#81,#82,#83,#84,#93,#100));
#102=FACE_BOUND('',#101,.T.);
#103=ADVANCED_FACE('',(#102),#73,.T.);
#104=CARTESIAN_POINT('',(-17.5,-37.5,0.));
#105=DIRECTION('',(0.,1.,0.));
#106=DIRECTION('',(-1.,0.,0.));
#107=AXIS2_PLACEMENT_3D('',#104,#105,#106);
#108=PLANE('',#107);
#109=CARTESIAN_POINT('',(-25.5,-37.5,0.));
#110=VERTEX_POINT('',#109);
#111=CARTESIAN_POINT('',(25.5,-37.5,0.));
#112=VERTEX_POINT('',#111);
#113=CARTESIAN_POINT('',(0.,-37.5,0.));
#114=DIRECTION('',(0.,1.,0.));
#115=DIRECTION('',(-1.,0.,0.));
#116=AXIS2_PLACEMENT_3D('',#113,#114,#115);
#117=CIRCLE('',#116,25.5);
#118=EDGE_CURVE('',#110,#112,#117,.T.);
#119=ORIENTED_EDGE('',*,*,#118,.T.);
#120=CARTESIAN_POINT('',(0.,-37.5,0.));
#121=DIRECTION('',(0.,1.,0.));
#122=DIRECTION('',(-1.,0.,0.));
#123=AXIS2_PLACEMENT_3D('',#120,#121,#122);
#124=CIRCLE('',#123,25.5);
#125=EDGE_CURVE('',#112,#110,#124,.T.);
#126=ORIENTED_EDGE('',*,*,#125,.T.);
#127=EDGE_LOOP('',(#119,#126));
#128=FACE_BOUND('',#127,.T.);
#129=ORIENTED_EDGE('',*,*,#47,.F.);
#130=EDGE_LOOP('',(#129));
#131=FACE_BOUND('',#130,.T.);
#132=ADVANCED_FACE('',(#128,#131),#108,.T.);
#133=COLOUR_RGB('',1.,0.788235307,0.054901961);
#134=FILL_AREA_STYLE_COLOUR('',#133);
#135=FILL_AREA_STYLE('',(#134));
#136=SURFACE_STYLE_FILL_AREA(#135);
#137=SURFACE_SIDE_STYLE('',(#136));
#138=SURFACE_STYLE_USAGE(.BOTH.,#137);
#139=PRESENTATION_STYLE_ASSIGNMENT((#138));
#140=OVER_RIDING_STYLED_ITEM('',(#139),#132,#26);
#141=CARTESIAN_POINT('',(0.,0.,0.));
#142=DIRECTION('',(0.,-1.,0.));
#143=DIRECTION('',(1.,0.,0.));
#144=AXIS2_PLACEMENT_3D('',#141,#142,#143);
#145=CONICAL_SURFACE('',#144,9.,45.);
#146=CARTESIAN_POINT('',(-9.,0.,-0.));
#147=VERTEX_POINT('',#146);
#148=CARTESIAN_POINT('',(-9.,0.,0.));
#149=DIRECTION('',(-0.707106781,-0.707106781,0.));
#150=VECTOR('',#149,0.707106781);
#151=LINE('',#148,#150);
#152=EDGE_CURVE('',#147,#86,#151,.T.);
#153=ORIENTED_EDGE('',*,*,#152,.T.);
#154=ORIENTED_EDGE('',*,*,#92,.T.);
#155=ORIENTED_EDGE('',*,*,#99,.T.);
#156=ORIENTED_EDGE('',*,*,#152,.F.);
#157=CARTESIAN_POINT('',(0.,0.,0.));
#158=DIRECTION('',(0.,-1.,0.));
#159=DIRECTION('',(1.,0.,0.));
#160=AXIS2_PLACEMENT_3D('',#157,#158,#159);
#161=CIRCLE('',#160,9.);
#162=EDGE_CURVE('',#147,#147,#161,.T.);
#163=ORIENTED_EDGE('',*,*,#162,.T.);
#164=EDGE_LOOP('',(#153,#154,#155,#156,#163));
#165=FACE_BOUND('',#164,.T.);
#166=ADVANCED_FACE('',(#165),#145,.T.);
#167=CARTESIAN_POINT('',(-4.75,0.,0.));
#168=DIRECTION('',(0.,1.,0.));
#169=DIRECTION('',(-1.,0.,0.));
#170=AXIS2_PLACEMENT_3D('',#167,#168,#169);
#171=PLANE('',#170);
#172=ORIENTED_EDGE('',*,*,#162,.F.);
#173=EDGE_LOOP('',(#172));
#174=FACE_BOUND('',#173,.T.);
#175=ADVANCED_FACE('',(#174),#171,.T.);
#176=CARTESIAN_POINT('',(0.,-72.,0.));
#177=DIRECTION('',(0.,0.,1.));
#178=DIRECTION('',(1.,0.,-0.));
#179=AXIS2_PLACEMENT_3D('',#176,#177,#178);
#180=SPHERICAL_SURFACE('',#179,25.5);
#181=CARTESIAN_POINT('',(-25.5,-72.,0.));
#182=VERTEX_POINT('',#181);
#183=CARTESIAN_POINT('',(-0.,-72.,25.5));
#184=VERTEX_POINT('',#183);
#185=CARTESIAN_POINT('',(0.,-72.,0.));
#186=DIRECTION('',(0.,1.,0.));
#187=DIRECTION('',(-1.,0.,0.));
#188=AXIS2_PLACEMENT_3D('',#185,#186,#187);
#189=CIRCLE('',#188,25.5);
#190=EDGE_CURVE('',#182,#184,#189,.T.);
#191=ORIENTED_EDGE('',*,*,#190,.F.);
#192=CARTESIAN_POINT('',(0.,-72.,-25.5));
#193=VERTEX_POINT('',#192);
#194=CARTESIAN_POINT('',(0.,-72.,0.));
#195=DIRECTION('',(0.,1.,0.));
#196=DIRECTION('',(-1.,0.,0.));
#197=AXIS2_PLACEMENT_3D('',#194,#195,#196);
#198=CIRCLE('',#197,25.5);
#199=EDGE_CURVE('',#193,#182,#198,.T.);
#200=ORIENTED_EDGE('',*,*,#199,.F.);
#201=CARTESIAN_POINT('',(25.5,-72.,0.));
#202=VERTEX_POINT('',#201);
#203=CARTESIAN_POINT('',(0.,-72.,0.));
#204=DIRECTION('',(0.,1.,0.));
#205=DIRECTION('',(-1.,0.,0.));
#206=AXIS2_PLACEMENT_3D('',#203,#204,#205);
#207=CIRCLE('',#206,25.5);
#208=EDGE_CURVE('',#202,#193,#207,.T.);
#209=ORIENTED_EDGE('',*,*,#208,.F.);
#210=CARTESIAN_POINT('',(0.,-72.,0.));
#211=DIRECTION('',(0.,1.,0.));
#212=DIRECTION('',(-1.,0.,0.));
#213=AXIS2_PLACEMENT_3D('',#210,#211,#212);
#214=CIRCLE('',#213,25.5);
#215=EDGE_CURVE('',#184,#202,#214,.T.);
#216=ORIENTED_EDGE('',*,*,#215,.F.);
#217=EDGE_LOOP('',(#191,#200,#209,#216));
#218=FACE_BOUND('',#217,.T.);
#219=ADVANCED_FACE('',(#218),#180,.T.);
#220=OVER_RIDING_STYLED_ITEM('',(#139),#219,#26);
#221=CARTESIAN_POINT('',(0.,-54.75,0.));
#222=DIRECTION('',(0.,1.,0.));
#223=DIRECTION('',(-1.,0.,0.));
#224=AXIS2_PLACEMENT_3D('',#221,#222,#223);
#225=CYLINDRICAL_SURFACE('',#224,25.5);
#226=CARTESIAN_POINT('',(25.5,-37.5,0.));
#227=DIRECTION('',(0.,-1.,-0.));
#228=VECTOR('',#227,34.5);
#229=LINE('',#226,#228);
#230=EDGE_CURVE('',#112,#202,#229,.T.);
#231=ORIENTED_EDGE('',*,*,#230,.T.);
#232=ORIENTED_EDGE('',*,*,#208,.T.);
#233=ORIENTED_EDGE('',*,*,#199,.T.);
#234=ORIENTED_EDGE('',*,*,#190,.T.);
#235=ORIENTED_EDGE('',*,*,#215,.T.);
#236=ORIENTED_EDGE('',*,*,#230,.F.);
#237=ORIENTED_EDGE('',*,*,#118,.F.);
#238=ORIENTED_EDGE('',*,*,#125,.F.);
#239=EDGE_LOOP('',(#231,#232,#233,#234,#235,#236,#237,#238));
#240=FACE_BOUND('',#239,.T.);
#241=ADVANCED_FACE('',(#240),#225,.T.);
#242=OVER_RIDING_STYLED_ITEM('',(#139),#241,#26);
#243=CLOSED_SHELL('',(#68,#103,#132,#166,#175,#219,#241));
#244=MANIFOLD_SOLID_BREP('alibrePartClosedBody',#243);
#245=COLOUR_RGB('',0.882352948,0.882352948,0.882352948);
#246=FILL_AREA_STYLE_COLOUR('',#245);
#247=FILL_AREA_STYLE('',(#246));
#248=SURFACE_STYLE_FILL_AREA(#247);
#249=SURFACE_SIDE_STYLE('',(#248));
#250=SURFACE_STYLE_USAGE(.BOTH.,#249);
#251=PRESENTATION_STYLE_ASSIGNMENT((#250));
#26=STYLED_ITEM('',(#251),#244);
#16=SHAPE_REPRESENTATION('4363 EPS and Foams CNC Milling Cutter Round Tip 3.83 inch 98mm',(#15),#10);
#17=ADVANCED_BREP_SHAPE_REPRESENTATION('4363 EPS and Foams CNC Milling Cutter Round Tip 3.83 inch 98mm',(#244),#10);
#259=SHAPE_REPRESENTATION_RELATIONSHIP('','',#16,#17);
#260=CARTESIAN_POINT('',(0.,0.,0.));
#261=DIRECTION('',(0.,0.,1.));
#262=DIRECTION('',(1.,0.,0.));
#263=AXIS2_PLACEMENT_3D('',#260,#261,#262);
#265=MAPPED_ITEM('',#264,#263);
#264=REPRESENTATION_MAP(#263,#16);
#266=APPLICATION_CONTEXT('Managed model based 3d engineering');
#267=APPLICATION_PROTOCOL_DEFINITION('international standard','ap242_managed_model_based_3d_engineering',2013,#266);
#268=PRODUCT_CONTEXT('',#266,'mechanical');
#269=PRODUCT_DEFINITION_CONTEXT('part definition',#266,'design');
#24=PRODUCT('4363 EPS and Foams CNC Milling Cutter Round Tip 3.83 inch 98mm','4363 EPS and Foams CNC Milling Cutter Round Tip 3.83 inch 98mm','',(#268));
#270=PRODUCT_RELATED_PRODUCT_CATEGORY('part','',(#24));
#271=PRODUCT_DEFINITION_FORMATION_WITH_SPECIFIED_SOURCE('','',#24,.NOT_KNOWN.);
#25=PRODUCT_DEFINITION('design','',#271,#269);
#23=PRODUCT_DEFINITION_SHAPE('','',#25);
#272=SHAPE_DEFINITION_REPRESENTATION(#23,#16);
#11=DRAUGHTING_MODEL('',(#265),#10);
#1=MECHANICAL_DESIGN_GEOMETRIC_PRESENTATION_REPRESENTATION('',(#140,#220,#242,#26),#10);
ENDSEC;
END-ISO-10303-21;
