ISO-10303-21;
HEADER;

/* File generated by Alibre Version V28 */

FILE_DESCRIPTION(('HOOPS Exchange Step'),'2;1');

FILE_NAME('C:\\Users\\Gebruiker\\AppData\\Local\\Temp\\Alibre Design\\28.0.4.28141\\export-49CF3E6B-3D12-4C94-8ACD-9093DCCA1D72.stp',
'2025-07-31T14:09:43+02:00',
('Engineering'),
('Alibre'),
'HOOPS Exchange 2024.5',
'Alibre',
'Unknown authorisation');

FILE_SCHEMA( ('AP242_MANAGED_MODEL_BASED_3D_ENGINEERING_MIM_LF {1 0 10303 442 1 1 4 }') );

ENDSEC;

DATA;
#3=(NAMED_UNIT(*)PLANE_ANGLE_UNIT()SI_UNIT($,.RADIAN.));
#4=PLANE_ANGLE_MEASURE_WITH_UNIT(PLANE_ANGLE_MEASURE(0.0174532925),#3);
#5=(CONVERSION_BASED_UNIT('DEGREE',#4)NAMED_UNIT(#6)PLANE_ANGLE_UNIT());
#6=DIMENSIONAL_EXPONENTS(0.,0.,0.,0.,0.,0.,0.);
#7=(NAMED_UNIT(*)SI_UNIT($,.STERADIAN.)SOLID_ANGLE_UNIT());
#8=(LENGTH_UNIT()NAMED_UNIT(*)SI_UNIT(.MILLI.,.METRE.));
#9=UNCERTAINTY_MEASURE_WITH_UNIT(LENGTH_MEASURE(1.000000E-06),#8,'DISTANCE_ACCURACY_VALUE','Maximum Tolerance applied to model');
#10=(GEOMETRIC_REPRESENTATION_CONTEXT(3)GLOBAL_UNCERTAINTY_ASSIGNED_CONTEXT((#9))GLOBAL_UNIT_ASSIGNED_CONTEXT((#8,#5,#7))REPRESENTATION_CONTEXT('','4407 2L10004 Blanking Plug \S\X8mm (R9)'));
#12=CARTESIAN_POINT('',(0.,0.,0.));
#13=DIRECTION('',(0.,0.,1.));
#14=DIRECTION('',(1.,0.,0.));
#15=AXIS2_PLACEMENT_3D('',#12,#13,#14);
#27=CARTESIAN_POINT('',(0.,0.,0.));
#28=DIRECTION('',(0.,-1.,0.));
#29=DIRECTION('',(0.,0.,-1.));
#30=AXIS2_PLACEMENT_3D('',#27,#28,#29);
#31=CYLINDRICAL_SURFACE('',#30,7.);
#32=CARTESIAN_POINT('',(-5.14174095,33.6,4.75));
#33=VERTEX_POINT('',#32);
#34=CARTESIAN_POINT('',(-5.14174095,33.6,-4.75));
#35=VERTEX_POINT('',#34);
#36=CARTESIAN_POINT('',(0.,33.6,0.));
#37=DIRECTION('',(0.,-1.,0.));
#38=DIRECTION('',(0.,0.,-1.));
#39=AXIS2_PLACEMENT_3D('',#36,#37,#38);
#40=CIRCLE('',#39,7.);
#41=EDGE_CURVE('',#33,#35,#40,.T.);
#42=ORIENTED_EDGE('',*,*,#41,.T.);
#43=CARTESIAN_POINT('',(-5.14174095,31.,-4.75));
#44=VERTEX_POINT('',#43);
#45=CARTESIAN_POINT('',(-5.14174095,33.6,-4.75));
#46=DIRECTION('',(0.,-1.,0.));
#47=VECTOR('',#46,2.6);
#48=LINE('',#45,#47);
#49=EDGE_CURVE('',#35,#44,#48,.T.);
#50=ORIENTED_EDGE('',*,*,#49,.T.);
#51=CARTESIAN_POINT('',(-5.14174095,31.,4.75));
#52=VERTEX_POINT('',#51);
#53=CARTESIAN_POINT('',(0.,31.,0.));
#54=DIRECTION('',(0.,-1.,0.));
#55=DIRECTION('',(0.,0.,-1.));
#56=AXIS2_PLACEMENT_3D('',#53,#54,#55);
#57=CIRCLE('',#56,7.);
#58=EDGE_CURVE('',#52,#44,#57,.T.);
#59=ORIENTED_EDGE('',*,*,#58,.F.);
#60=CARTESIAN_POINT('',(-5.14174095,31.,4.75));
#61=DIRECTION('',(0.,1.,0.));
#62=VECTOR('',#61,2.6);
#63=LINE('',#60,#62);
#64=EDGE_CURVE('',#52,#33,#63,.T.);
#65=ORIENTED_EDGE('',*,*,#64,.T.);
#66=EDGE_LOOP('',(#42,#50,#59,#65));
#67=FACE_BOUND('',#66,.T.);
#68=ADVANCED_FACE('',(#67),#31,.T.);
#69=CARTESIAN_POINT('',(0.,33.6,0.));
#70=DIRECTION('',(0.,-1.,0.));
#71=DIRECTION('',(0.,0.,-1.));
#72=AXIS2_PLACEMENT_3D('',#69,#70,#71);
#73=PLANE('',#72);
#74=CARTESIAN_POINT('',(5.14174095,33.6,-4.75));
#75=VERTEX_POINT('',#74);
#76=CARTESIAN_POINT('',(5.14174095,33.6,4.75));
#77=VERTEX_POINT('',#76);
#78=CARTESIAN_POINT('',(0.,33.6,0.));
#79=DIRECTION('',(0.,-1.,0.));
#80=DIRECTION('',(0.,0.,-1.));
#81=AXIS2_PLACEMENT_3D('',#78,#79,#80);
#82=CIRCLE('',#81,7.);
#83=EDGE_CURVE('',#75,#77,#82,.T.);
#84=ORIENTED_EDGE('',*,*,#83,.F.);
#85=CARTESIAN_POINT('',(5.14174095,33.6,-4.75));
#86=DIRECTION('',(-1.,0.,0.));
#87=VECTOR('',#86,10.283481901);
#88=LINE('',#85,#87);
#89=EDGE_CURVE('',#75,#35,#88,.T.);
#90=ORIENTED_EDGE('',*,*,#89,.T.);
#91=ORIENTED_EDGE('',*,*,#41,.F.);
#92=CARTESIAN_POINT('',(-5.14174095,33.6,4.75));
#93=DIRECTION('',(1.,0.,-0.));
#94=VECTOR('',#93,10.283481901);
#95=LINE('',#92,#94);
#96=EDGE_CURVE('',#33,#77,#95,.T.);
#97=ORIENTED_EDGE('',*,*,#96,.T.);
#98=EDGE_LOOP('',(#84,#90,#91,#97));
#99=FACE_BOUND('',#98,.T.);
#100=ADVANCED_FACE('',(#99),#73,.F.);
#101=CARTESIAN_POINT('',(0.,0.,0.));
#102=DIRECTION('',(0.,-1.,0.));
#103=DIRECTION('',(0.,0.,-1.));
#104=AXIS2_PLACEMENT_3D('',#101,#102,#103);
#105=CYLINDRICAL_SURFACE('',#104,7.);
#106=CARTESIAN_POINT('',(5.14174095,31.,-4.75));
#107=VERTEX_POINT('',#106);
#108=CARTESIAN_POINT('',(5.14174095,31.,4.75));
#109=VERTEX_POINT('',#108);
#110=CARTESIAN_POINT('',(0.,31.,0.));
#111=DIRECTION('',(0.,-1.,0.));
#112=DIRECTION('',(0.,0.,-1.));
#113=AXIS2_PLACEMENT_3D('',#110,#111,#112);
#114=CIRCLE('',#113,7.);
#115=EDGE_CURVE('',#107,#109,#114,.T.);
#116=ORIENTED_EDGE('',*,*,#115,.F.);
#117=CARTESIAN_POINT('',(5.14174095,31.,-4.75));
#118=DIRECTION('',(0.,1.,0.));
#119=VECTOR('',#118,2.6);
#120=LINE('',#117,#119);
#121=EDGE_CURVE('',#107,#75,#120,.T.);
#122=ORIENTED_EDGE('',*,*,#121,.T.);
#123=ORIENTED_EDGE('',*,*,#83,.T.);
#124=CARTESIAN_POINT('',(5.14174095,33.6,4.75));
#125=DIRECTION('',(0.,-1.,0.));
#126=VECTOR('',#125,2.6);
#127=LINE('',#124,#126);
#128=EDGE_CURVE('',#77,#109,#127,.T.);
#129=ORIENTED_EDGE('',*,*,#128,.T.);
#130=EDGE_LOOP('',(#116,#122,#123,#129));
#131=FACE_BOUND('',#130,.T.);
#132=ADVANCED_FACE('',(#131),#105,.T.);
#133=CARTESIAN_POINT('',(7.,31.,0.));
#134=DIRECTION('',(0.,1.,0.));
#135=DIRECTION('',(0.,0.,1.));
#136=AXIS2_PLACEMENT_3D('',#133,#134,#135);
#137=PLANE('',#136);
#138=CARTESIAN_POINT('',(0.,31.,4.));
#139=VERTEX_POINT('',#138);
#140=CARTESIAN_POINT('',(-0.,31.,-4.));
#141=VERTEX_POINT('',#140);
#142=CARTESIAN_POINT('',(0.,31.,0.));
#143=DIRECTION('',(0.,-1.,0.));
#144=DIRECTION('',(0.,0.,-1.));
#145=AXIS2_PLACEMENT_3D('',#142,#143,#144);
#146=CIRCLE('',#145,4.);
#147=EDGE_CURVE('',#139,#141,#146,.T.);
#148=ORIENTED_EDGE('',*,*,#147,.F.);
#149=CARTESIAN_POINT('',(0.,31.,0.));
#150=DIRECTION('',(0.,-1.,0.));
#151=DIRECTION('',(0.,0.,-1.));
#152=AXIS2_PLACEMENT_3D('',#149,#150,#151);
#153=CIRCLE('',#152,4.);
#154=EDGE_CURVE('',#141,#139,#153,.T.);
#155=ORIENTED_EDGE('',*,*,#154,.F.);
#156=EDGE_LOOP('',(#148,#155));
#157=FACE_BOUND('',#156,.T.);
#158=ORIENTED_EDGE('',*,*,#58,.T.);
#159=CARTESIAN_POINT('',(-5.14174095,31.,-4.75));
#160=DIRECTION('',(1.,0.,-0.));
#161=VECTOR('',#160,10.283481901);
#162=LINE('',#159,#161);
#163=EDGE_CURVE('',#44,#107,#162,.T.);
#164=ORIENTED_EDGE('',*,*,#163,.T.);
#165=ORIENTED_EDGE('',*,*,#115,.T.);
#166=CARTESIAN_POINT('',(5.14174095,31.,4.75));
#167=DIRECTION('',(-1.,0.,0.));
#168=VECTOR('',#167,10.283481901);
#169=LINE('',#166,#168);
#170=EDGE_CURVE('',#109,#52,#169,.T.);
#171=ORIENTED_EDGE('',*,*,#170,.T.);
#172=EDGE_LOOP('',(#158,#164,#165,#171));
#173=FACE_BOUND('',#172,.T.);
#174=ADVANCED_FACE('',(#157,#173),#137,.F.);
#175=CARTESIAN_POINT('',(0.,0.,0.));
#176=DIRECTION('',(0.,-1.,0.));
#177=DIRECTION('',(0.,0.,-1.));
#178=AXIS2_PLACEMENT_3D('',#175,#176,#177);
#179=CYLINDRICAL_SURFACE('',#178,4.);
#180=CARTESIAN_POINT('',(0.,0.,4.));
#181=VERTEX_POINT('',#180);
#182=CARTESIAN_POINT('',(0.,0.,4.));
#183=DIRECTION('',(-0.,1.,-0.));
#184=VECTOR('',#183,31.);
#185=LINE('',#182,#184);
#186=EDGE_CURVE('',#181,#139,#185,.T.);
#187=ORIENTED_EDGE('',*,*,#186,.T.);
#188=ORIENTED_EDGE('',*,*,#147,.T.);
#189=CARTESIAN_POINT('',(-0.,0.,-4.));
#190=VERTEX_POINT('',#189);
#191=CARTESIAN_POINT('',(0.,0.,-4.));
#192=DIRECTION('',(0.,1.,0.));
#193=VECTOR('',#192,31.);
#194=LINE('',#191,#193);
#195=EDGE_CURVE('',#190,#141,#194,.T.);
#196=ORIENTED_EDGE('',*,*,#195,.F.);
#197=CARTESIAN_POINT('',(0.,0.,0.));
#198=DIRECTION('',(0.,-1.,0.));
#199=DIRECTION('',(0.,0.,-1.));
#200=AXIS2_PLACEMENT_3D('',#197,#198,#199);
#201=CIRCLE('',#200,4.);
#202=EDGE_CURVE('',#181,#190,#201,.T.);
#203=ORIENTED_EDGE('',*,*,#202,.F.);
#204=EDGE_LOOP('',(#187,#188,#196,#203));
#205=FACE_BOUND('',#204,.T.);
#206=ADVANCED_FACE('',(#205),#179,.T.);
#207=CARTESIAN_POINT('',(4.,0.,0.));
#208=DIRECTION('',(0.,1.,0.));
#209=DIRECTION('',(0.,0.,1.));
#210=AXIS2_PLACEMENT_3D('',#207,#208,#209);
#211=PLANE('',#210);
#212=CARTESIAN_POINT('',(0.,0.,3.));
#213=VERTEX_POINT('',#212);
#214=CARTESIAN_POINT('',(-0.,0.,-3.));
#215=VERTEX_POINT('',#214);
#216=CARTESIAN_POINT('',(0.,0.,0.));
#217=DIRECTION('',(0.,-1.,0.));
#218=DIRECTION('',(0.,0.,-1.));
#219=AXIS2_PLACEMENT_3D('',#216,#217,#218);
#220=CIRCLE('',#219,3.);
#221=EDGE_CURVE('',#213,#215,#220,.T.);
#222=ORIENTED_EDGE('',*,*,#221,.F.);
#223=CARTESIAN_POINT('',(0.,0.,0.));
#224=DIRECTION('',(0.,-1.,0.));
#225=DIRECTION('',(0.,0.,-1.));
#226=AXIS2_PLACEMENT_3D('',#223,#224,#225);
#227=CIRCLE('',#226,3.);
#228=EDGE_CURVE('',#215,#213,#227,.T.);
#229=ORIENTED_EDGE('',*,*,#228,.F.);
#230=EDGE_LOOP('',(#222,#229));
#231=FACE_BOUND('',#230,.T.);
#232=CARTESIAN_POINT('',(0.,0.,0.));
#233=DIRECTION('',(0.,-1.,0.));
#234=DIRECTION('',(0.,0.,-1.));
#235=AXIS2_PLACEMENT_3D('',#232,#233,#234);
#236=CIRCLE('',#235,4.);
#237=EDGE_CURVE('',#190,#181,#236,.T.);
#238=ORIENTED_EDGE('',*,*,#237,.T.);
#239=ORIENTED_EDGE('',*,*,#202,.T.);
#240=EDGE_LOOP('',(#238,#239));
#241=FACE_BOUND('',#240,.T.);
#242=ADVANCED_FACE('',(#231,#241),#211,.F.);
#243=CARTESIAN_POINT('',(0.,31.,0.));
#244=DIRECTION('',(0.,-1.,0.));
#245=DIRECTION('',(0.,0.,-1.));
#246=AXIS2_PLACEMENT_3D('',#243,#244,#245);
#247=PLANE('',#246);
#248=CARTESIAN_POINT('',(-0.,31.,-3.));
#249=VERTEX_POINT('',#248);
#250=CARTESIAN_POINT('',(0.,31.,3.));
#251=VERTEX_POINT('',#250);
#252=CARTESIAN_POINT('',(0.,31.,0.));
#253=DIRECTION('',(0.,-1.,0.));
#254=DIRECTION('',(0.,0.,-1.));
#255=AXIS2_PLACEMENT_3D('',#252,#253,#254);
#256=CIRCLE('',#255,3.);
#257=EDGE_CURVE('',#249,#251,#256,.T.);
#258=ORIENTED_EDGE('',*,*,#257,.T.);
#259=CARTESIAN_POINT('',(0.,31.,0.));
#260=DIRECTION('',(0.,-1.,0.));
#261=DIRECTION('',(0.,0.,-1.));
#262=AXIS2_PLACEMENT_3D('',#259,#260,#261);
#263=CIRCLE('',#262,3.);
#264=EDGE_CURVE('',#251,#249,#263,.T.);
#265=ORIENTED_EDGE('',*,*,#264,.T.);
#266=EDGE_LOOP('',(#258,#265));
#267=FACE_BOUND('',#266,.T.);
#268=ADVANCED_FACE('',(#267),#247,.T.);
#269=CARTESIAN_POINT('',(0.,0.,0.));
#270=DIRECTION('',(0.,-1.,0.));
#271=DIRECTION('',(0.,0.,-1.));
#272=AXIS2_PLACEMENT_3D('',#269,#270,#271);
#273=CYLINDRICAL_SURFACE('',#272,3.);
#274=CARTESIAN_POINT('',(0.,0.,3.));
#275=DIRECTION('',(-0.,1.,-0.));
#276=VECTOR('',#275,31.);
#277=LINE('',#274,#276);
#278=EDGE_CURVE('',#213,#251,#277,.T.);
#279=ORIENTED_EDGE('',*,*,#278,.F.);
#280=ORIENTED_EDGE('',*,*,#221,.T.);
#281=CARTESIAN_POINT('',(0.,0.,-3.));
#282=DIRECTION('',(0.,1.,0.));
#283=VECTOR('',#282,31.);
#284=LINE('',#281,#283);
#285=EDGE_CURVE('',#215,#249,#284,.T.);
#286=ORIENTED_EDGE('',*,*,#285,.T.);
#287=ORIENTED_EDGE('',*,*,#264,.F.);
#288=EDGE_LOOP('',(#279,#280,#286,#287));
#289=FACE_BOUND('',#288,.T.);
#290=ADVANCED_FACE('',(#289),#273,.F.);
#291=CARTESIAN_POINT('',(-9.75,33.6,4.75));
#292=DIRECTION('',(0.,0.,-1.));
#293=DIRECTION('',(-1.,0.,0.));
#294=AXIS2_PLACEMENT_3D('',#291,#292,#293);
#295=PLANE('',#294);
#296=ORIENTED_EDGE('',*,*,#96,.F.);
#297=ORIENTED_EDGE('',*,*,#64,.F.);
#298=ORIENTED_EDGE('',*,*,#170,.F.);
#299=ORIENTED_EDGE('',*,*,#128,.F.);
#300=EDGE_LOOP('',(#296,#297,#298,#299));
#301=FACE_BOUND('',#300,.T.);
#302=ADVANCED_FACE('',(#301),#295,.F.);
#303=CARTESIAN_POINT('',(9.75,33.6,-4.75));
#304=DIRECTION('',(0.,0.,1.));
#305=DIRECTION('',(1.,0.,0.));
#306=AXIS2_PLACEMENT_3D('',#303,#304,#305);
#307=PLANE('',#306);
#308=ORIENTED_EDGE('',*,*,#89,.F.);
#309=ORIENTED_EDGE('',*,*,#121,.F.);
#310=ORIENTED_EDGE('',*,*,#163,.F.);
#311=ORIENTED_EDGE('',*,*,#49,.F.);
#312=EDGE_LOOP('',(#308,#309,#310,#311));
#313=FACE_BOUND('',#312,.T.);
#314=ADVANCED_FACE('',(#313),#307,.F.);
#315=CARTESIAN_POINT('',(0.,0.,0.));
#316=DIRECTION('',(0.,-1.,0.));
#317=DIRECTION('',(0.,0.,-1.));
#318=AXIS2_PLACEMENT_3D('',#315,#316,#317);
#319=CYLINDRICAL_SURFACE('',#318,4.);
#320=ORIENTED_EDGE('',*,*,#186,.F.);
#321=ORIENTED_EDGE('',*,*,#237,.F.);
#322=ORIENTED_EDGE('',*,*,#195,.T.);
#323=ORIENTED_EDGE('',*,*,#154,.T.);
#324=EDGE_LOOP('',(#320,#321,#322,#323));
#325=FACE_BOUND('',#324,.T.);
#326=ADVANCED_FACE('',(#325),#319,.T.);
#327=CARTESIAN_POINT('',(0.,0.,0.));
#328=DIRECTION('',(0.,-1.,0.));
#329=DIRECTION('',(0.,0.,-1.));
#330=AXIS2_PLACEMENT_3D('',#327,#328,#329);
#331=CYLINDRICAL_SURFACE('',#330,3.);
#332=ORIENTED_EDGE('',*,*,#278,.T.);
#333=ORIENTED_EDGE('',*,*,#257,.F.);
#334=ORIENTED_EDGE('',*,*,#285,.F.);
#335=ORIENTED_EDGE('',*,*,#228,.T.);
#336=EDGE_LOOP('',(#332,#333,#334,#335));
#337=FACE_BOUND('',#336,.T.);
#338=ADVANCED_FACE('',(#337),#331,.F.);
#339=CLOSED_SHELL('',(#68,#100,#132,#174,#206,#242,#268,#290,#302,#314,#326,#338));
#340=MANIFOLD_SOLID_BREP('2L10004',#339);
#341=COLOUR_RGB('',0.937254906,0.666666687,0.117647059);
#342=FILL_AREA_STYLE_COLOUR('',#341);
#343=FILL_AREA_STYLE('',(#342));
#344=SURFACE_STYLE_FILL_AREA(#343);
#345=SURFACE_SIDE_STYLE('',(#344));
#346=SURFACE_STYLE_USAGE(.BOTH.,#345);
#347=PRESENTATION_STYLE_ASSIGNMENT((#346));
#26=STYLED_ITEM('',(#347),#340);
#348=INTEGER_REPRESENTATION_ITEM('ATTRIB_BOUNDING_BOX_ALGORITHM',3);
#349=ID_ATTRIBUTE('SA #350',#350);
#350=SHAPE_ASPECT('properties','',#23,.F.);
#351=GEOMETRIC_ITEM_SPECIFIC_USAGE('','properties',#350,#17,#340);
#352=PROPERTY_DEFINITION('ATTRIB_BOUNDING_BOX_ALGORITHM','',#350);
#353=REPRESENTATION('',(#348),#10);
#354=PROPERTY_DEFINITION_REPRESENTATION(#352,#353);
#355=GENERAL_PROPERTY('','ATTRIB_BOUNDING_BOX_ALGORITHM','');
#356=GENERAL_PROPERTY_ASSOCIATION('','',#355,#352);
#16=SHAPE_REPRESENTATION('4407 2L10004 Blanking Plug \S\X8mm (R9)',(#15),#10);
#17=ADVANCED_BREP_SHAPE_REPRESENTATION('4407 2L10004 Blanking Plug \S\X8mm (R9)',(#340),#10);
#364=SHAPE_REPRESENTATION_RELATIONSHIP('','',#16,#17);
#365=CARTESIAN_POINT('',(0.,0.,0.));
#366=DIRECTION('',(0.,0.,1.));
#367=DIRECTION('',(1.,0.,0.));
#368=AXIS2_PLACEMENT_3D('',#365,#366,#367);
#370=MAPPED_ITEM('',#369,#368);
#369=REPRESENTATION_MAP(#368,#16);
#371=APPLICATION_CONTEXT('Managed model based 3d engineering');
#372=APPLICATION_PROTOCOL_DEFINITION('international standard','ap242_managed_model_based_3d_engineering',2013,#371);
#373=PRODUCT_CONTEXT('',#371,'mechanical');
#374=PRODUCT_DEFINITION_CONTEXT('part definition',#371,'design');
#24=PRODUCT('4407 2L10004 Blanking Plug \S\X8mm (R9)','4407 2L10004 Blanking Plug \S\X8mm (R9)','',(#373));
#375=PRODUCT_RELATED_PRODUCT_CATEGORY('part','',(#24));
#376=PRODUCT_DEFINITION_FORMATION_WITH_SPECIFIED_SOURCE('','',#24,.NOT_KNOWN.);
#25=PRODUCT_DEFINITION('design','',#376,#374);
#23=PRODUCT_DEFINITION_SHAPE('','',#25);
#377=SHAPE_DEFINITION_REPRESENTATION(#23,#16);
#11=DRAUGHTING_MODEL('',(#370),#10);
#1=MECHANICAL_DESIGN_GEOMETRIC_PRESENTATION_REPRESENTATION('',(#26),#10);
ENDSEC;
END-ISO-10303-21;
