ISO-10303-21;
HEADER;
/* Generated by software containing ST-Developer
 * from STEP Tools, Inc. (www.steptools.com) 
 */

FILE_DESCRIPTION(
/* description */ ('Alibre Inc.'),
/* implementation_level */ '2;1');

FILE_NAME(
/* name */ 'export-DA5D917E-931D-44DD-8B74-5431330B6245',
/* time_stamp */ '2019-02-26T17:01:44+01:00',
/* author */ (''),
/* organization */ (''),
/* preprocessor_version */ 'ST-DEVELOPER v17',
/* originating_system */ 'Alibre',
/* authorisation */ '');

FILE_SCHEMA (('AUTOMOTIVE_DESIGN'));
ENDSEC;

DATA;
#10=STYLED_ITEM('NAME_0',(#36),#243);
#11=STYLED_ITEM('NAME_0',(#37),#222);
#12=STYLED_ITEM('NAME_0',(#37),#223);
#13=STYLED_ITEM('NAME_0',(#37),#224);
#14=STYLED_ITEM('NAME_0',(#37),#225);
#15=STYLED_ITEM('NAME_0',(#37),#226);
#16=STYLED_ITEM('NAME_0',(#37),#227);
#17=STYLED_ITEM('NAME_0',(#37),#228);
#18=STYLED_ITEM('NAME_0',(#37),#229);
#19=STYLED_ITEM('NAME_0',(#37),#230);
#20=STYLED_ITEM('NAME_0',(#37),#231);
#21=STYLED_ITEM('NAME_0',(#37),#232);
#22=STYLED_ITEM('NAME_0',(#37),#233);
#23=MECHANICAL_DESIGN_GEOMETRIC_PRESENTATION_REPRESENTATION('NAME_0',(#10,
#11,#12,#13,#14,#15,#16,#17,#18,#19,#20,#21,#22),#52);
#24=COLOUR_RGB('',0.882352941176471,0.882352941176471,0.882352941176471);
#25=COLOUR_RGB('',0.686274509803922,0.686274509803922,0.686274509803922);
#26=FILL_AREA_STYLE_COLOUR('NAME_0',#24);
#27=FILL_AREA_STYLE_COLOUR('NAME_0',#25);
#28=FILL_AREA_STYLE('NAME_0',(#26));
#29=FILL_AREA_STYLE('NAME_0',(#27));
#30=SURFACE_STYLE_FILL_AREA(#28);
#31=SURFACE_STYLE_FILL_AREA(#29);
#32=SURFACE_SIDE_STYLE('NAME_0',(#30));
#33=SURFACE_SIDE_STYLE('NAME_0',(#31));
#34=SURFACE_STYLE_USAGE(.POSITIVE.,#32);
#35=SURFACE_STYLE_USAGE(.POSITIVE.,#33);
#36=PRESENTATION_STYLE_ASSIGNMENT((#34));
#37=PRESENTATION_STYLE_ASSIGNMENT((#35));
#38=PRODUCT_DEFINITION_CONTEXT('part definition',#45,'design');
#39=SHAPE_DEFINITION_REPRESENTATION(#40,#373);
#40=PRODUCT_DEFINITION_SHAPE('PRODUCT_VERSION_ID',
'PRODUCT_VERSION_DESCR',#41);
#41=PRODUCT_DEFINITION('PRODUCT_VERSION_ID','PRODUCT_VERSION_DESCR',#42,
#38);
#42=PRODUCT_DEFINITION_FORMATION_WITH_SPECIFIED_SOURCE(
'PRODUCT_VERSION_ID','PRODUCT_VERSION_DESCR',#47,.MADE.);
#43=PRODUCT_RELATED_PRODUCT_CATEGORY('part','part',(#47));
#44=APPLICATION_PROTOCOL_DEFINITION('Draft International Standard',
'automotive_design',1994,#45);
#45=APPLICATION_CONTEXT('automotive_Design');
#46=PRODUCT_CONTEXT('3D Mechanical Parts',#45,'mechanical');
#47=PRODUCT('','_0950003002-2','',(#46));
#48=(
LENGTH_UNIT()
NAMED_UNIT(*)
SI_UNIT(.MILLI.,.METRE.)
);
#49=(
NAMED_UNIT(*)
PLANE_ANGLE_UNIT()
SI_UNIT($,.RADIAN.)
);
#50=(
NAMED_UNIT(*)
SI_UNIT($,.STERADIAN.)
SOLID_ANGLE_UNIT()
);
#51=UNCERTAINTY_MEASURE_WITH_UNIT(LENGTH_MEASURE(1.E-6),#48,
'DISTANCE_ACCURACY_VALUE',
'Maximum model space distance between geometric entities at asserted c
onnectivities');
#52=(
GEOMETRIC_REPRESENTATION_CONTEXT(3)
GLOBAL_UNCERTAINTY_ASSIGNED_CONTEXT((#51))
GLOBAL_UNIT_ASSIGNED_CONTEXT((#50,#49,#48))
REPRESENTATION_CONTEXT('ID1','3D')
);
#53=CYLINDRICAL_SURFACE('',#366,2.6);
#54=CYLINDRICAL_SURFACE('',#367,1.621);
#55=CYLINDRICAL_SURFACE('',#368,6.75);
#56=CYLINDRICAL_SURFACE('',#371,6.75);
#57=VECTOR('',#249,1.);
#58=VECTOR('',#250,1.);
#59=VECTOR('',#253,1.);
#60=VECTOR('',#254,1.);
#61=VECTOR('',#265,1.);
#62=VECTOR('',#266,1.);
#63=VECTOR('',#269,1.);
#64=VECTOR('',#271,1.);
#65=VECTOR('',#274,1.);
#66=VECTOR('',#275,1.);
#67=VECTOR('',#279,1.);
#68=VECTOR('',#280,1.);
#69=VECTOR('',#287,1.);
#70=VECTOR('',#289,1.);
#71=VECTOR('',#291,1.);
#72=VECTOR('',#294,1.);
#73=LINE('',#300,#57);
#74=LINE('',#303,#58);
#75=LINE('',#307,#59);
#76=LINE('',#309,#60);
#77=LINE('',#321,#61);
#78=LINE('',#323,#62);
#79=LINE('',#327,#63);
#80=LINE('',#329,#64);
#81=LINE('',#332,#65);
#82=LINE('',#334,#66);
#83=LINE('',#338,#67);
#84=LINE('',#339,#68);
#85=LINE('',#343,#69);
#86=LINE('',#345,#70);
#87=LINE('',#347,#71);
#88=LINE('',#349,#72);
#89=VERTEX_POINT('',#299);
#90=VERTEX_POINT('',#301);
#91=VERTEX_POINT('',#302);
#92=VERTEX_POINT('',#304);
#93=VERTEX_POINT('',#306);
#94=VERTEX_POINT('',#308);
#95=VERTEX_POINT('',#310);
#96=VERTEX_POINT('',#314);
#97=VERTEX_POINT('',#316);
#98=VERTEX_POINT('',#319);
#99=VERTEX_POINT('',#320);
#100=VERTEX_POINT('',#322);
#101=VERTEX_POINT('',#324);
#102=VERTEX_POINT('',#326);
#103=VERTEX_POINT('',#330);
#104=VERTEX_POINT('',#333);
#105=VERTEX_POINT('',#335);
#106=CIRCLE('',#353,1.621);
#107=CIRCLE('',#354,6.75);
#108=CIRCLE('',#355,6.75);
#109=CIRCLE('',#357,2.6);
#110=CIRCLE('',#358,1.621);
#111=CIRCLE('',#360,2.6);
#112=CIRCLE('',#361,6.75);
#113=CIRCLE('',#363,2.6);
#114=CIRCLE('',#364,6.75);
#115=EDGE_CURVE('',#89,#89,#106,.T.);
#116=EDGE_CURVE('',#90,#91,#73,.T.);
#117=EDGE_CURVE('',#92,#90,#74,.T.);
#118=EDGE_CURVE('',#93,#92,#107,.T.);
#119=EDGE_CURVE('',#94,#93,#75,.T.);
#120=EDGE_CURVE('',#95,#94,#76,.T.);
#121=EDGE_CURVE('',#91,#95,#108,.T.);
#122=EDGE_CURVE('',#96,#96,#109,.T.);
#123=EDGE_CURVE('',#97,#97,#110,.T.);
#124=EDGE_CURVE('',#98,#99,#111,.F.);
#125=EDGE_CURVE('',#99,#100,#77,.T.);
#126=EDGE_CURVE('',#100,#101,#78,.T.);
#127=EDGE_CURVE('',#101,#102,#112,.T.);
#128=EDGE_CURVE('',#102,#98,#79,.T.);
#129=EDGE_CURVE('',#103,#99,#80,.T.);
#130=EDGE_CURVE('',#99,#98,#113,.F.);
#131=EDGE_CURVE('',#98,#104,#81,.T.);
#132=EDGE_CURVE('',#104,#105,#82,.T.);
#133=EDGE_CURVE('',#105,#103,#114,.T.);
#134=EDGE_CURVE('',#105,#93,#83,.T.);
#135=EDGE_CURVE('',#104,#94,#84,.T.);
#136=EDGE_CURVE('',#103,#92,#85,.T.);
#137=EDGE_CURVE('',#100,#90,#86,.T.);
#138=EDGE_CURVE('',#101,#91,#87,.T.);
#139=EDGE_CURVE('',#102,#95,#88,.T.);
#140=ORIENTED_EDGE('',*,*,#115,.F.);
#141=ORIENTED_EDGE('',*,*,#116,.F.);
#142=ORIENTED_EDGE('',*,*,#117,.F.);
#143=ORIENTED_EDGE('',*,*,#118,.F.);
#144=ORIENTED_EDGE('',*,*,#119,.F.);
#145=ORIENTED_EDGE('',*,*,#120,.F.);
#146=ORIENTED_EDGE('',*,*,#121,.F.);
#147=ORIENTED_EDGE('',*,*,#122,.F.);
#148=ORIENTED_EDGE('',*,*,#123,.T.);
#149=ORIENTED_EDGE('',*,*,#124,.T.);
#150=ORIENTED_EDGE('',*,*,#125,.T.);
#151=ORIENTED_EDGE('',*,*,#126,.T.);
#152=ORIENTED_EDGE('',*,*,#127,.T.);
#153=ORIENTED_EDGE('',*,*,#128,.T.);
#154=ORIENTED_EDGE('',*,*,#129,.T.);
#155=ORIENTED_EDGE('',*,*,#130,.T.);
#156=ORIENTED_EDGE('',*,*,#131,.T.);
#157=ORIENTED_EDGE('',*,*,#132,.T.);
#158=ORIENTED_EDGE('',*,*,#133,.T.);
#159=ORIENTED_EDGE('',*,*,#119,.T.);
#160=ORIENTED_EDGE('',*,*,#134,.F.);
#161=ORIENTED_EDGE('',*,*,#132,.F.);
#162=ORIENTED_EDGE('',*,*,#135,.T.);
#163=ORIENTED_EDGE('',*,*,#130,.F.);
#164=ORIENTED_EDGE('',*,*,#124,.F.);
#165=ORIENTED_EDGE('',*,*,#122,.T.);
#166=ORIENTED_EDGE('',*,*,#115,.T.);
#167=ORIENTED_EDGE('',*,*,#123,.F.);
#168=ORIENTED_EDGE('',*,*,#118,.T.);
#169=ORIENTED_EDGE('',*,*,#136,.F.);
#170=ORIENTED_EDGE('',*,*,#133,.F.);
#171=ORIENTED_EDGE('',*,*,#134,.T.);
#172=ORIENTED_EDGE('',*,*,#117,.T.);
#173=ORIENTED_EDGE('',*,*,#137,.F.);
#174=ORIENTED_EDGE('',*,*,#125,.F.);
#175=ORIENTED_EDGE('',*,*,#129,.F.);
#176=ORIENTED_EDGE('',*,*,#136,.T.);
#177=ORIENTED_EDGE('',*,*,#116,.T.);
#178=ORIENTED_EDGE('',*,*,#138,.F.);
#179=ORIENTED_EDGE('',*,*,#126,.F.);
#180=ORIENTED_EDGE('',*,*,#137,.T.);
#181=ORIENTED_EDGE('',*,*,#121,.T.);
#182=ORIENTED_EDGE('',*,*,#139,.F.);
#183=ORIENTED_EDGE('',*,*,#127,.F.);
#184=ORIENTED_EDGE('',*,*,#138,.T.);
#185=ORIENTED_EDGE('',*,*,#120,.T.);
#186=ORIENTED_EDGE('',*,*,#135,.F.);
#187=ORIENTED_EDGE('',*,*,#131,.F.);
#188=ORIENTED_EDGE('',*,*,#128,.F.);
#189=ORIENTED_EDGE('',*,*,#139,.T.);
#190=EDGE_LOOP('',(#140));
#191=EDGE_LOOP('',(#141,#142,#143,#144,#145,#146));
#192=EDGE_LOOP('',(#147));
#193=EDGE_LOOP('',(#148));
#194=EDGE_LOOP('',(#149,#150,#151,#152,#153));
#195=EDGE_LOOP('',(#154,#155,#156,#157,#158));
#196=EDGE_LOOP('',(#159,#160,#161,#162));
#197=EDGE_LOOP('',(#163,#164));
#198=EDGE_LOOP('',(#165));
#199=EDGE_LOOP('',(#166));
#200=EDGE_LOOP('',(#167));
#201=EDGE_LOOP('',(#168,#169,#170,#171));
#202=EDGE_LOOP('',(#172,#173,#174,#175,#176));
#203=EDGE_LOOP('',(#177,#178,#179,#180));
#204=EDGE_LOOP('',(#181,#182,#183,#184));
#205=EDGE_LOOP('',(#185,#186,#187,#188,#189));
#206=FACE_BOUND('',#190,.T.);
#207=FACE_BOUND('',#191,.T.);
#208=FACE_BOUND('',#192,.T.);
#209=FACE_BOUND('',#193,.T.);
#210=FACE_BOUND('',#194,.T.);
#211=FACE_BOUND('',#195,.T.);
#212=FACE_BOUND('',#196,.T.);
#213=FACE_BOUND('',#197,.T.);
#214=FACE_BOUND('',#198,.T.);
#215=FACE_BOUND('',#199,.T.);
#216=FACE_BOUND('',#200,.T.);
#217=FACE_BOUND('',#201,.T.);
#218=FACE_BOUND('',#202,.T.);
#219=FACE_BOUND('',#203,.T.);
#220=FACE_BOUND('',#204,.T.);
#221=FACE_BOUND('',#205,.T.);
#222=ADVANCED_FACE('',(#206,#207),#234,.F.);
#223=ADVANCED_FACE('',(#208,#209),#235,.F.);
#224=ADVANCED_FACE('',(#210),#236,.T.);
#225=ADVANCED_FACE('',(#211),#237,.T.);
#226=ADVANCED_FACE('',(#212),#238,.F.);
#227=ADVANCED_FACE('',(#213,#214),#53,.T.);
#228=ADVANCED_FACE('',(#215,#216),#54,.F.);
#229=ADVANCED_FACE('',(#217),#55,.T.);
#230=ADVANCED_FACE('',(#218),#239,.F.);
#231=ADVANCED_FACE('',(#219),#240,.F.);
#232=ADVANCED_FACE('',(#220),#56,.T.);
#233=ADVANCED_FACE('',(#221),#241,.F.);
#234=PLANE('',#352);
#235=PLANE('',#356);
#236=PLANE('',#359);
#237=PLANE('',#362);
#238=PLANE('',#365);
#239=PLANE('',#369);
#240=PLANE('',#370);
#241=PLANE('',#372);
#242=CLOSED_SHELL('',(#222,#223,#224,#225,#226,#227,#228,#229,#230,#231,
#232,#233));
#243=MANIFOLD_SOLID_BREP('',#242);
#244=DIRECTION('',(1.,0.,0.));
#245=DIRECTION('',(0.,0.,1.));
#246=DIRECTION('',(0.,1.,0.));
#247=DIRECTION('',(0.,-1.,0.));
#248=DIRECTION('',(0.,0.,-1.621));
#249=DIRECTION('',(0.707106781186547,0.,-0.707106781186548));
#250=DIRECTION('',(1.,0.,0.));
#251=DIRECTION('',(0.,1.,0.));
#252=DIRECTION('',(6.75,0.,0.));
#253=DIRECTION('',(-0.707106781186548,0.,0.707106781186547));
#254=DIRECTION('',(-1.,0.,0.));
#255=DIRECTION('',(0.,1.,0.));
#256=DIRECTION('',(6.75,0.,0.));
#257=DIRECTION('',(0.,-1.,0.));
#258=DIRECTION('',(0.,-1.,0.));
#259=DIRECTION('',(0.,0.,-2.6));
#260=DIRECTION('',(0.,-1.,0.));
#261=DIRECTION('',(0.,0.,-1.621));
#262=DIRECTION('',(0.,1.,0.));
#263=DIRECTION('',(0.,1.,0.));
#264=DIRECTION('',(0.,0.,2.6));
#265=DIRECTION('',(1.,0.,0.));
#266=DIRECTION('',(0.707106781186547,0.,-0.707106781186548));
#267=DIRECTION('',(0.,1.,0.));
#268=DIRECTION('',(6.75,0.,0.));
#269=DIRECTION('',(-1.,0.,0.));
#270=DIRECTION('',(0.,1.,0.));
#271=DIRECTION('',(1.,0.,0.));
#272=DIRECTION('',(0.,1.,0.));
#273=DIRECTION('',(0.,0.,2.6));
#274=DIRECTION('',(-1.,0.,0.));
#275=DIRECTION('',(-0.707106781186548,0.,0.707106781186547));
#276=DIRECTION('',(0.,1.,0.));
#277=DIRECTION('',(6.75,0.,0.));
#278=DIRECTION('',(0.707106781186547,0.,0.707106781186548));
#279=DIRECTION('',(0.,-1.,0.));
#280=DIRECTION('',(0.,-1.,0.));
#281=DIRECTION('',(0.,1.,0.));
#282=DIRECTION('',(0.,0.,-2.6));
#283=DIRECTION('',(0.,1.,0.));
#284=DIRECTION('',(0.,0.,-1.621));
#285=DIRECTION('',(0.,1.,0.));
#286=DIRECTION('',(0.,0.,-6.75));
#287=DIRECTION('',(0.,-1.,0.));
#288=DIRECTION('',(0.,0.,-1.));
#289=DIRECTION('',(0.,-1.,0.));
#290=DIRECTION('',(-0.707106781186548,0.,-0.707106781186547));
#291=DIRECTION('',(0.,-1.,0.));
#292=DIRECTION('',(0.,1.,0.));
#293=DIRECTION('',(0.,0.,-6.75));
#294=DIRECTION('',(0.,-1.,0.));
#295=DIRECTION('',(0.,0.,1.));
#296=CARTESIAN_POINT('',(0.,0.,0.));
#297=CARTESIAN_POINT('',(1.81278603239576E-13,0.,-5.98479599211998E-14));
#298=CARTESIAN_POINT('',(0.,0.,0.));
#299=CARTESIAN_POINT('',(0.,0.,-1.621));
#300=CARTESIAN_POINT('',(2.06690475583122,0.,2.6));
#301=CARTESIAN_POINT('',(2.06690475583122,0.,2.6));
#302=CARTESIAN_POINT('',(6.49713464245021,0.,-1.830229886619));
#303=CARTESIAN_POINT('',(-6.22916527313251,0.,2.6));
#304=CARTESIAN_POINT('',(-6.22916527313251,0.,2.6));
#305=CARTESIAN_POINT('',(0.,0.,0.));
#306=CARTESIAN_POINT('',(-6.49713464245021,0.,1.83022988661899));
#307=CARTESIAN_POINT('',(-2.06690475583121,0.,-2.6));
#308=CARTESIAN_POINT('',(-2.06690475583121,0.,-2.6));
#309=CARTESIAN_POINT('',(6.22916527313251,0.,-2.6));
#310=CARTESIAN_POINT('',(6.22916527313251,0.,-2.6));
#311=CARTESIAN_POINT('',(0.,0.,0.));
#312=CARTESIAN_POINT('',(0.,4.,0.));
#313=CARTESIAN_POINT('',(0.,4.,0.));
#314=CARTESIAN_POINT('',(0.,4.,-2.6));
#315=CARTESIAN_POINT('',(0.,4.,0.));
#316=CARTESIAN_POINT('',(0.,4.,-1.621));
#317=CARTESIAN_POINT('',(1.81278603239576E-13,3.,-5.98479599211998E-14));
#318=CARTESIAN_POINT('',(0.,3.,0.));
#319=CARTESIAN_POINT('',(0.,3.,-2.6));
#320=CARTESIAN_POINT('',(0.,3.,2.6));
#321=CARTESIAN_POINT('',(-6.22916527313251,3.,2.6));
#322=CARTESIAN_POINT('',(2.06690475583122,3.,2.6));
#323=CARTESIAN_POINT('',(2.06690475583122,3.,2.6));
#324=CARTESIAN_POINT('',(6.49713464245021,3.,-1.830229886619));
#325=CARTESIAN_POINT('',(5.20417042793042E-15,3.,-7.37257477290143E-15));
#326=CARTESIAN_POINT('',(6.22916527313251,3.,-2.6));
#327=CARTESIAN_POINT('',(6.22916527313251,3.,-2.6));
#328=CARTESIAN_POINT('',(1.81278603239576E-13,3.,-5.98479599211998E-14));
#329=CARTESIAN_POINT('',(-6.22916527313251,3.,2.6));
#330=CARTESIAN_POINT('',(-6.22916527313251,3.,2.6));
#331=CARTESIAN_POINT('',(0.,3.,0.));
#332=CARTESIAN_POINT('',(6.22916527313251,3.,-2.6));
#333=CARTESIAN_POINT('',(-2.06690475583121,3.,-2.6));
#334=CARTESIAN_POINT('',(-2.06690475583121,3.,-2.6));
#335=CARTESIAN_POINT('',(-6.49713464245021,3.,1.83022988661899));
#336=CARTESIAN_POINT('',(1.81278603239576E-13,3.,-5.98479599211998E-14));
#337=CARTESIAN_POINT('',(-2.06690475583121,3.,-2.6));
#338=CARTESIAN_POINT('',(-6.49713464245021,3.,1.83022988661899));
#339=CARTESIAN_POINT('',(-2.06690475583121,3.,-2.6));
#340=CARTESIAN_POINT('',(0.,0.,0.));
#341=CARTESIAN_POINT('',(0.,0.,0.));
#342=CARTESIAN_POINT('',(1.81278603239576E-13,3.,-5.98479599211998E-14));
#343=CARTESIAN_POINT('',(-6.22916527313251,3.,2.6));
#344=CARTESIAN_POINT('',(-6.22916527313251,3.,2.6));
#345=CARTESIAN_POINT('',(2.06690475583122,3.,2.6));
#346=CARTESIAN_POINT('',(2.06690475583122,3.,2.6));
#347=CARTESIAN_POINT('',(6.49713464245021,3.,-1.830229886619));
#348=CARTESIAN_POINT('',(5.20417042793042E-15,3.,-7.37257477290143E-15));
#349=CARTESIAN_POINT('',(6.22916527313251,3.,-2.6));
#350=CARTESIAN_POINT('',(6.22916527313251,3.,-2.6));
#351=AXIS2_PLACEMENT_3D('',#296,#245,#244);
#352=AXIS2_PLACEMENT_3D('',#297,#246,$);
#353=AXIS2_PLACEMENT_3D('',#298,#247,#248);
#354=AXIS2_PLACEMENT_3D('',#305,#251,#252);
#355=AXIS2_PLACEMENT_3D('',#311,#255,#256);
#356=AXIS2_PLACEMENT_3D('',#312,#257,$);
#357=AXIS2_PLACEMENT_3D('',#313,#258,#259);
#358=AXIS2_PLACEMENT_3D('',#315,#260,#261);
#359=AXIS2_PLACEMENT_3D('',#317,#262,$);
#360=AXIS2_PLACEMENT_3D('',#318,#263,#264);
#361=AXIS2_PLACEMENT_3D('',#325,#267,#268);
#362=AXIS2_PLACEMENT_3D('',#328,#270,$);
#363=AXIS2_PLACEMENT_3D('',#331,#272,#273);
#364=AXIS2_PLACEMENT_3D('',#336,#276,#277);
#365=AXIS2_PLACEMENT_3D('',#337,#278,$);
#366=AXIS2_PLACEMENT_3D('',#340,#281,#282);
#367=AXIS2_PLACEMENT_3D('',#341,#283,#284);
#368=AXIS2_PLACEMENT_3D('',#342,#285,#286);
#369=AXIS2_PLACEMENT_3D('',#344,#288,$);
#370=AXIS2_PLACEMENT_3D('',#346,#290,$);
#371=AXIS2_PLACEMENT_3D('',#348,#292,#293);
#372=AXIS2_PLACEMENT_3D('',#350,#295,$);
#373=ADVANCED_BREP_SHAPE_REPRESENTATION('',(#243,#351),#52);
ENDSEC;
END-ISO-10303-21;
