ISO-10303-21;
HEADER;
/* Generated by software containing ST-Developer
 * from STEP Tools, Inc. (www.steptools.com) 
 */

FILE_DESCRIPTION(
/* description */ ('Alibre Inc.'),
/* implementation_level */ '2;1');

FILE_NAME(
/* name */ 'export-BF43FF4E-0F41-475C-B8AA-206BDA5E0E54',
/* time_stamp */ '2020-03-27T15:50:20+01:00',
/* author */ (''),
/* organization */ (''),
/* preprocessor_version */ 'ST-DEVELOPER v17',
/* originating_system */ 'Alibre',
/* authorisation */ '');

FILE_SCHEMA (('AUTOMOTIVE_DESIGN'));
ENDSEC;

DATA;
#10=STYLED_ITEM('NAME_0',(#18),#658);
#11=MECHANICAL_DESIGN_GEOMETRIC_PRESENTATION_REPRESENTATION('NAME_0',(#10),
#33);
#12=COLOUR_RGB('',0.882352941176471,0.882352941176471,0.882352941176471);
#13=FILL_AREA_STYLE_COLOUR('NAME_0',#12);
#14=FILL_AREA_STYLE('NAME_0',(#13));
#15=SURFACE_STYLE_FILL_AREA(#14);
#16=SURFACE_SIDE_STYLE('NAME_0',(#15));
#17=SURFACE_STYLE_USAGE(.POSITIVE.,#16);
#18=PRESENTATION_STYLE_ASSIGNMENT((#17));
#19=PRODUCT_DEFINITION_CONTEXT('part definition',#26,'design');
#20=SHAPE_DEFINITION_REPRESENTATION(#21,#659);
#21=PRODUCT_DEFINITION_SHAPE('PRODUCT_VERSION_ID',
'PRODUCT_VERSION_DESCR',#22);
#22=PRODUCT_DEFINITION('PRODUCT_VERSION_ID','PRODUCT_VERSION_DESCR',#23,
#19);
#23=PRODUCT_DEFINITION_FORMATION_WITH_SPECIFIED_SOURCE(
'PRODUCT_VERSION_ID','PRODUCT_VERSION_DESCR',#28,.MADE.);
#24=PRODUCT_RELATED_PRODUCT_CATEGORY('part','part',(#28));
#25=APPLICATION_PROTOCOL_DEFINITION('Draft International Standard',
'automotive_design',1994,#26);
#26=APPLICATION_CONTEXT('automotive_Design');
#27=PRODUCT_CONTEXT('3D Mechanical Parts',#26,'mechanical');
#28=PRODUCT('','494 M5x20 DIN912 metric bolt','',(#27));
#29=(
LENGTH_UNIT()
NAMED_UNIT(*)
SI_UNIT(.MILLI.,.METRE.)
);
#30=(
NAMED_UNIT(*)
PLANE_ANGLE_UNIT()
SI_UNIT($,.RADIAN.)
);
#31=(
NAMED_UNIT(*)
SI_UNIT($,.STERADIAN.)
SOLID_ANGLE_UNIT()
);
#32=UNCERTAINTY_MEASURE_WITH_UNIT(LENGTH_MEASURE(1.E-6),#29,
'DISTANCE_ACCURACY_VALUE',
'Maximum model space distance between geometric entities at asserted c
onnectivities');
#33=(
GEOMETRIC_REPRESENTATION_CONTEXT(3)
GLOBAL_UNCERTAINTY_ASSIGNED_CONTEXT((#32))
GLOBAL_UNIT_ASSIGNED_CONTEXT((#31,#30,#29))
REPRESENTATION_CONTEXT('ID1','3D')
);
#34=PLANE('',#416);
#35=PLANE('',#422);
#36=PLANE('',#423);
#37=PLANE('',#424);
#38=PLANE('',#425);
#39=PLANE('',#426);
#40=PLANE('',#427);
#41=PLANE('',#428);
#42=PLANE('',#429);
#43=PLANE('',#430);
#44=PLANE('',#436);
#45=CONICAL_SURFACE('',#401,2.2835,0.785398163397448);
#46=CONICAL_SURFACE('',#406,2.2835,0.785398163397448);
#47=CONICAL_SURFACE('',#414,2.2835,0.785398163397448);
#48=CONICAL_SURFACE('',#420,2.2835,0.785398163397448);
#49=TOROIDAL_SURFACE('',#395,3.825,0.425);
#50=TOROIDAL_SURFACE('',#432,3.825,0.425);
#51=CIRCLE('',#392,4.25);
#52=CIRCLE('',#393,4.25);
#53=CIRCLE('',#394,4.25);
#54=CIRCLE('',#396,0.425);
#55=CIRCLE('',#397,3.825);
#56=CIRCLE('',#398,3.825);
#57=CIRCLE('',#399,0.425);
#58=CIRCLE('',#400,4.25);
#59=CIRCLE('',#402,2.5);
#60=CIRCLE('',#403,2.067);
#61=CIRCLE('',#405,2.5);
#62=CIRCLE('',#407,2.5);
#63=CIRCLE('',#408,2.067);
#64=CIRCLE('',#410,2.5);
#65=CIRCLE('',#412,2.5);
#66=CIRCLE('',#413,2.5);
#67=CIRCLE('',#415,2.067);
#68=CIRCLE('',#417,2.5);
#69=CIRCLE('',#419,2.5);
#70=CIRCLE('',#421,2.067);
#71=CIRCLE('',#431,3.825);
#72=CIRCLE('',#433,4.25);
#73=CIRCLE('',#435,4.25);
#74=VERTEX_POINT('',#546);
#75=VERTEX_POINT('',#547);
#76=VERTEX_POINT('',#549);
#77=VERTEX_POINT('',#551);
#78=VERTEX_POINT('',#553);
#79=VERTEX_POINT('',#557);
#80=VERTEX_POINT('',#558);
#81=VERTEX_POINT('',#560);
#82=VERTEX_POINT('',#562);
#83=VERTEX_POINT('',#567);
#84=VERTEX_POINT('',#568);
#85=VERTEX_POINT('',#570);
#86=VERTEX_POINT('',#572);
#87=VERTEX_POINT('',#576);
#88=VERTEX_POINT('',#578);
#89=VERTEX_POINT('',#582);
#90=VERTEX_POINT('',#583);
#91=VERTEX_POINT('',#585);
#92=VERTEX_POINT('',#587);
#93=VERTEX_POINT('',#591);
#94=VERTEX_POINT('',#593);
#95=VERTEX_POINT('',#609);
#96=VERTEX_POINT('',#610);
#97=VERTEX_POINT('',#612);
#98=VERTEX_POINT('',#614);
#99=VERTEX_POINT('',#618);
#100=VERTEX_POINT('',#620);
#101=VERTEX_POINT('',#624);
#102=VERTEX_POINT('',#626);
#103=VERTEX_POINT('',#630);
#104=VERTEX_POINT('',#632);
#105=VERTEX_POINT('',#636);
#106=VERTEX_POINT('',#638);
#107=VECTOR('',#439,1.);
#108=VECTOR('',#444,1.);
#109=VECTOR('',#460,1.);
#110=VECTOR('',#463,1.);
#111=VECTOR('',#468,1.);
#112=VECTOR('',#471,1.);
#113=VECTOR('',#474,1.);
#114=VECTOR('',#477,1.);
#115=VECTOR('',#482,1.);
#116=VECTOR('',#485,1.);
#117=VECTOR('',#509,1.);
#118=VECTOR('',#510,1.);
#119=VECTOR('',#511,1.);
#120=VECTOR('',#512,1.);
#121=VECTOR('',#514,1.);
#122=VECTOR('',#515,1.);
#123=VECTOR('',#516,1.);
#124=VECTOR('',#518,1.);
#125=VECTOR('',#519,1.);
#126=VECTOR('',#520,1.);
#127=VECTOR('',#522,1.);
#128=VECTOR('',#523,1.);
#129=VECTOR('',#524,1.);
#130=VECTOR('',#526,1.);
#131=VECTOR('',#527,1.);
#132=VECTOR('',#528,1.);
#133=VECTOR('',#530,1.);
#134=VECTOR('',#531,1.);
#135=LINE('',#545,#107);
#136=LINE('',#552,#108);
#137=LINE('',#566,#109);
#138=LINE('',#571,#110);
#139=LINE('',#575,#111);
#140=LINE('',#579,#112);
#141=LINE('',#581,#113);
#142=LINE('',#586,#114);
#143=LINE('',#590,#115);
#144=LINE('',#594,#116);
#145=LINE('',#608,#117);
#146=LINE('',#611,#118);
#147=LINE('',#613,#119);
#148=LINE('',#615,#120);
#149=LINE('',#617,#121);
#150=LINE('',#619,#122);
#151=LINE('',#621,#123);
#152=LINE('',#623,#124);
#153=LINE('',#625,#125);
#154=LINE('',#627,#126);
#155=LINE('',#629,#127);
#156=LINE('',#631,#128);
#157=LINE('',#633,#129);
#158=LINE('',#635,#130);
#159=LINE('',#637,#131);
#160=LINE('',#639,#132);
#161=LINE('',#641,#133);
#162=LINE('',#642,#134);
#163=EDGE_CURVE('',#74,#75,#135,.T.);
#164=EDGE_CURVE('',#74,#76,#51,.T.);
#165=EDGE_CURVE('',#76,#77,#52,.T.);
#166=EDGE_CURVE('',#78,#77,#136,.T.);
#167=EDGE_CURVE('',#75,#78,#53,.T.);
#168=EDGE_CURVE('',#79,#80,#54,.T.);
#169=EDGE_CURVE('',#79,#81,#55,.T.);
#170=EDGE_CURVE('',#81,#82,#56,.T.);
#171=EDGE_CURVE('',#76,#82,#57,.T.);
#172=EDGE_CURVE('',#80,#74,#58,.T.);
#173=EDGE_CURVE('',#83,#84,#137,.T.);
#174=EDGE_CURVE('',#83,#85,#59,.T.);
#175=EDGE_CURVE('',#86,#85,#138,.T.);
#176=EDGE_CURVE('',#84,#86,#60,.T.);
#177=EDGE_CURVE('',#87,#83,#139,.T.);
#178=EDGE_CURVE('',#87,#88,#61,.T.);
#179=EDGE_CURVE('',#85,#88,#140,.T.);
#180=EDGE_CURVE('',#89,#90,#141,.T.);
#181=EDGE_CURVE('',#89,#91,#62,.T.);
#182=EDGE_CURVE('',#92,#91,#142,.T.);
#183=EDGE_CURVE('',#90,#92,#63,.T.);
#184=EDGE_CURVE('',#93,#89,#143,.T.);
#185=EDGE_CURVE('',#94,#93,#64,.T.);
#186=EDGE_CURVE('',#91,#94,#144,.T.);
#187=EDGE_CURVE('',#91,#89,#65,.T.);
#188=EDGE_CURVE('',#93,#94,#66,.T.);
#189=EDGE_CURVE('',#92,#90,#67,.T.);
#190=EDGE_CURVE('',#88,#87,#68,.T.);
#191=EDGE_CURVE('',#85,#83,#69,.T.);
#192=EDGE_CURVE('',#86,#84,#70,.T.);
#193=EDGE_CURVE('',#95,#96,#145,.T.);
#194=EDGE_CURVE('',#95,#97,#146,.T.);
#195=EDGE_CURVE('',#98,#97,#147,.T.);
#196=EDGE_CURVE('',#96,#98,#148,.T.);
#197=EDGE_CURVE('',#96,#99,#149,.T.);
#198=EDGE_CURVE('',#100,#98,#150,.T.);
#199=EDGE_CURVE('',#99,#100,#151,.T.);
#200=EDGE_CURVE('',#99,#101,#152,.T.);
#201=EDGE_CURVE('',#102,#100,#153,.T.);
#202=EDGE_CURVE('',#101,#102,#154,.T.);
#203=EDGE_CURVE('',#101,#103,#155,.T.);
#204=EDGE_CURVE('',#104,#102,#156,.T.);
#205=EDGE_CURVE('',#103,#104,#157,.T.);
#206=EDGE_CURVE('',#105,#95,#158,.T.);
#207=EDGE_CURVE('',#105,#106,#159,.T.);
#208=EDGE_CURVE('',#97,#106,#160,.T.);
#209=EDGE_CURVE('',#103,#105,#161,.T.);
#210=EDGE_CURVE('',#106,#104,#162,.T.);
#211=EDGE_CURVE('',#82,#79,#71,.T.);
#212=EDGE_CURVE('',#77,#80,#72,.T.);
#213=EDGE_CURVE('',#78,#75,#73,.T.);
#214=ORIENTED_EDGE('',*,*,#163,.F.);
#215=ORIENTED_EDGE('',*,*,#164,.T.);
#216=ORIENTED_EDGE('',*,*,#165,.T.);
#217=ORIENTED_EDGE('',*,*,#166,.F.);
#218=ORIENTED_EDGE('',*,*,#167,.F.);
#219=ORIENTED_EDGE('',*,*,#168,.F.);
#220=ORIENTED_EDGE('',*,*,#169,.T.);
#221=ORIENTED_EDGE('',*,*,#170,.T.);
#222=ORIENTED_EDGE('',*,*,#171,.F.);
#223=ORIENTED_EDGE('',*,*,#164,.F.);
#224=ORIENTED_EDGE('',*,*,#172,.F.);
#225=ORIENTED_EDGE('',*,*,#173,.F.);
#226=ORIENTED_EDGE('',*,*,#174,.T.);
#227=ORIENTED_EDGE('',*,*,#175,.F.);
#228=ORIENTED_EDGE('',*,*,#176,.F.);
#229=ORIENTED_EDGE('',*,*,#177,.F.);
#230=ORIENTED_EDGE('',*,*,#178,.T.);
#231=ORIENTED_EDGE('',*,*,#179,.F.);
#232=ORIENTED_EDGE('',*,*,#174,.F.);
#233=ORIENTED_EDGE('',*,*,#180,.F.);
#234=ORIENTED_EDGE('',*,*,#181,.T.);
#235=ORIENTED_EDGE('',*,*,#182,.F.);
#236=ORIENTED_EDGE('',*,*,#183,.F.);
#237=ORIENTED_EDGE('',*,*,#184,.F.);
#238=ORIENTED_EDGE('',*,*,#185,.F.);
#239=ORIENTED_EDGE('',*,*,#186,.F.);
#240=ORIENTED_EDGE('',*,*,#181,.F.);
#241=ORIENTED_EDGE('',*,*,#184,.T.);
#242=ORIENTED_EDGE('',*,*,#187,.F.);
#243=ORIENTED_EDGE('',*,*,#186,.T.);
#244=ORIENTED_EDGE('',*,*,#188,.F.);
#245=ORIENTED_EDGE('',*,*,#180,.T.);
#246=ORIENTED_EDGE('',*,*,#189,.F.);
#247=ORIENTED_EDGE('',*,*,#182,.T.);
#248=ORIENTED_EDGE('',*,*,#187,.T.);
#249=ORIENTED_EDGE('',*,*,#178,.F.);
#250=ORIENTED_EDGE('',*,*,#190,.F.);
#251=ORIENTED_EDGE('',*,*,#183,.T.);
#252=ORIENTED_EDGE('',*,*,#189,.T.);
#253=ORIENTED_EDGE('',*,*,#177,.T.);
#254=ORIENTED_EDGE('',*,*,#191,.F.);
#255=ORIENTED_EDGE('',*,*,#179,.T.);
#256=ORIENTED_EDGE('',*,*,#190,.T.);
#257=ORIENTED_EDGE('',*,*,#173,.T.);
#258=ORIENTED_EDGE('',*,*,#192,.F.);
#259=ORIENTED_EDGE('',*,*,#175,.T.);
#260=ORIENTED_EDGE('',*,*,#191,.T.);
#261=ORIENTED_EDGE('',*,*,#176,.T.);
#262=ORIENTED_EDGE('',*,*,#192,.T.);
#263=ORIENTED_EDGE('',*,*,#193,.F.);
#264=ORIENTED_EDGE('',*,*,#194,.T.);
#265=ORIENTED_EDGE('',*,*,#195,.F.);
#266=ORIENTED_EDGE('',*,*,#196,.F.);
#267=ORIENTED_EDGE('',*,*,#197,.F.);
#268=ORIENTED_EDGE('',*,*,#196,.T.);
#269=ORIENTED_EDGE('',*,*,#198,.F.);
#270=ORIENTED_EDGE('',*,*,#199,.F.);
#271=ORIENTED_EDGE('',*,*,#200,.F.);
#272=ORIENTED_EDGE('',*,*,#199,.T.);
#273=ORIENTED_EDGE('',*,*,#201,.F.);
#274=ORIENTED_EDGE('',*,*,#202,.F.);
#275=ORIENTED_EDGE('',*,*,#203,.F.);
#276=ORIENTED_EDGE('',*,*,#202,.T.);
#277=ORIENTED_EDGE('',*,*,#204,.F.);
#278=ORIENTED_EDGE('',*,*,#205,.F.);
#279=ORIENTED_EDGE('',*,*,#206,.F.);
#280=ORIENTED_EDGE('',*,*,#207,.T.);
#281=ORIENTED_EDGE('',*,*,#208,.F.);
#282=ORIENTED_EDGE('',*,*,#194,.F.);
#283=ORIENTED_EDGE('',*,*,#209,.F.);
#284=ORIENTED_EDGE('',*,*,#205,.T.);
#285=ORIENTED_EDGE('',*,*,#210,.F.);
#286=ORIENTED_EDGE('',*,*,#207,.F.);
#287=ORIENTED_EDGE('',*,*,#204,.T.);
#288=ORIENTED_EDGE('',*,*,#201,.T.);
#289=ORIENTED_EDGE('',*,*,#198,.T.);
#290=ORIENTED_EDGE('',*,*,#195,.T.);
#291=ORIENTED_EDGE('',*,*,#208,.T.);
#292=ORIENTED_EDGE('',*,*,#210,.T.);
#293=ORIENTED_EDGE('',*,*,#203,.T.);
#294=ORIENTED_EDGE('',*,*,#209,.T.);
#295=ORIENTED_EDGE('',*,*,#206,.T.);
#296=ORIENTED_EDGE('',*,*,#193,.T.);
#297=ORIENTED_EDGE('',*,*,#197,.T.);
#298=ORIENTED_EDGE('',*,*,#200,.T.);
#299=ORIENTED_EDGE('',*,*,#170,.F.);
#300=ORIENTED_EDGE('',*,*,#169,.F.);
#301=ORIENTED_EDGE('',*,*,#211,.F.);
#302=ORIENTED_EDGE('',*,*,#168,.T.);
#303=ORIENTED_EDGE('',*,*,#212,.F.);
#304=ORIENTED_EDGE('',*,*,#165,.F.);
#305=ORIENTED_EDGE('',*,*,#171,.T.);
#306=ORIENTED_EDGE('',*,*,#211,.T.);
#307=ORIENTED_EDGE('',*,*,#163,.T.);
#308=ORIENTED_EDGE('',*,*,#213,.F.);
#309=ORIENTED_EDGE('',*,*,#166,.T.);
#310=ORIENTED_EDGE('',*,*,#212,.T.);
#311=ORIENTED_EDGE('',*,*,#172,.T.);
#312=ORIENTED_EDGE('',*,*,#185,.T.);
#313=ORIENTED_EDGE('',*,*,#188,.T.);
#314=ORIENTED_EDGE('',*,*,#167,.T.);
#315=ORIENTED_EDGE('',*,*,#213,.T.);
#316=EDGE_LOOP('',(#214,#215,#216,#217,#218));
#317=EDGE_LOOP('',(#219,#220,#221,#222,#223,#224));
#318=EDGE_LOOP('',(#225,#226,#227,#228));
#319=EDGE_LOOP('',(#229,#230,#231,#232));
#320=EDGE_LOOP('',(#233,#234,#235,#236));
#321=EDGE_LOOP('',(#237,#238,#239,#240));
#322=EDGE_LOOP('',(#241,#242,#243,#244));
#323=EDGE_LOOP('',(#245,#246,#247,#248));
#324=EDGE_LOOP('',(#249,#250));
#325=EDGE_LOOP('',(#251,#252));
#326=EDGE_LOOP('',(#253,#254,#255,#256));
#327=EDGE_LOOP('',(#257,#258,#259,#260));
#328=EDGE_LOOP('',(#261,#262));
#329=EDGE_LOOP('',(#263,#264,#265,#266));
#330=EDGE_LOOP('',(#267,#268,#269,#270));
#331=EDGE_LOOP('',(#271,#272,#273,#274));
#332=EDGE_LOOP('',(#275,#276,#277,#278));
#333=EDGE_LOOP('',(#279,#280,#281,#282));
#334=EDGE_LOOP('',(#283,#284,#285,#286));
#335=EDGE_LOOP('',(#287,#288,#289,#290,#291,#292));
#336=EDGE_LOOP('',(#293,#294,#295,#296,#297,#298));
#337=EDGE_LOOP('',(#299,#300,#301));
#338=EDGE_LOOP('',(#302,#303,#304,#305,#306));
#339=EDGE_LOOP('',(#307,#308,#309,#310,#311));
#340=EDGE_LOOP('',(#312,#313));
#341=EDGE_LOOP('',(#314,#315));
#342=FACE_BOUND('',#316,.T.);
#343=FACE_BOUND('',#317,.T.);
#344=FACE_BOUND('',#318,.T.);
#345=FACE_BOUND('',#319,.T.);
#346=FACE_BOUND('',#320,.T.);
#347=FACE_BOUND('',#321,.T.);
#348=FACE_BOUND('',#322,.T.);
#349=FACE_BOUND('',#323,.T.);
#350=FACE_BOUND('',#324,.T.);
#351=FACE_BOUND('',#325,.T.);
#352=FACE_BOUND('',#326,.T.);
#353=FACE_BOUND('',#327,.T.);
#354=FACE_BOUND('',#328,.T.);
#355=FACE_BOUND('',#329,.T.);
#356=FACE_BOUND('',#330,.T.);
#357=FACE_BOUND('',#331,.T.);
#358=FACE_BOUND('',#332,.T.);
#359=FACE_BOUND('',#333,.T.);
#360=FACE_BOUND('',#334,.T.);
#361=FACE_BOUND('',#335,.T.);
#362=FACE_BOUND('',#336,.T.);
#363=FACE_BOUND('',#337,.T.);
#364=FACE_BOUND('',#338,.T.);
#365=FACE_BOUND('',#339,.T.);
#366=FACE_BOUND('',#340,.T.);
#367=FACE_BOUND('',#341,.T.);
#368=ADVANCED_FACE('',(#342),#651,.T.);
#369=ADVANCED_FACE('',(#343),#49,.T.);
#370=ADVANCED_FACE('',(#344),#45,.T.);
#371=ADVANCED_FACE('',(#345),#652,.T.);
#372=ADVANCED_FACE('',(#346),#46,.T.);
#373=ADVANCED_FACE('',(#347),#653,.T.);
#374=ADVANCED_FACE('',(#348),#654,.T.);
#375=ADVANCED_FACE('',(#349),#47,.T.);
#376=ADVANCED_FACE('',(#350,#351),#34,.T.);
#377=ADVANCED_FACE('',(#352),#655,.T.);
#378=ADVANCED_FACE('',(#353),#48,.T.);
#379=ADVANCED_FACE('',(#354),#35,.T.);
#380=ADVANCED_FACE('',(#355),#36,.F.);
#381=ADVANCED_FACE('',(#356),#37,.F.);
#382=ADVANCED_FACE('',(#357),#38,.F.);
#383=ADVANCED_FACE('',(#358),#39,.F.);
#384=ADVANCED_FACE('',(#359),#40,.F.);
#385=ADVANCED_FACE('',(#360),#41,.F.);
#386=ADVANCED_FACE('',(#361),#42,.F.);
#387=ADVANCED_FACE('',(#362,#363),#43,.T.);
#388=ADVANCED_FACE('',(#364),#50,.T.);
#389=ADVANCED_FACE('',(#365),#656,.T.);
#390=ADVANCED_FACE('',(#366,#367),#44,.T.);
#391=AXIS2_PLACEMENT_3D('',#544,#437,#438);
#392=AXIS2_PLACEMENT_3D('',#548,#440,#441);
#393=AXIS2_PLACEMENT_3D('',#550,#442,#443);
#394=AXIS2_PLACEMENT_3D('',#554,#445,#446);
#395=AXIS2_PLACEMENT_3D('',#555,#447,$);
#396=AXIS2_PLACEMENT_3D('',#556,#448,#449);
#397=AXIS2_PLACEMENT_3D('',#559,#450,#451);
#398=AXIS2_PLACEMENT_3D('',#561,#452,#453);
#399=AXIS2_PLACEMENT_3D('',#563,#454,#455);
#400=AXIS2_PLACEMENT_3D('',#564,#456,#457);
#401=AXIS2_PLACEMENT_3D('',#565,#458,#459);
#402=AXIS2_PLACEMENT_3D('',#569,#461,#462);
#403=AXIS2_PLACEMENT_3D('',#573,#464,#465);
#404=AXIS2_PLACEMENT_3D('',#574,#466,#467);
#405=AXIS2_PLACEMENT_3D('',#577,#469,#470);
#406=AXIS2_PLACEMENT_3D('',#580,#472,#473);
#407=AXIS2_PLACEMENT_3D('',#584,#475,#476);
#408=AXIS2_PLACEMENT_3D('',#588,#478,#479);
#409=AXIS2_PLACEMENT_3D('',#589,#480,#481);
#410=AXIS2_PLACEMENT_3D('',#592,#483,#484);
#411=AXIS2_PLACEMENT_3D('',#595,#486,#487);
#412=AXIS2_PLACEMENT_3D('',#596,#488,#489);
#413=AXIS2_PLACEMENT_3D('',#597,#490,#491);
#414=AXIS2_PLACEMENT_3D('',#598,#492,#493);
#415=AXIS2_PLACEMENT_3D('',#599,#494,#495);
#416=AXIS2_PLACEMENT_3D('',#600,#496,$);
#417=AXIS2_PLACEMENT_3D('',#601,#497,#498);
#418=AXIS2_PLACEMENT_3D('',#602,#499,#500);
#419=AXIS2_PLACEMENT_3D('',#603,#501,#502);
#420=AXIS2_PLACEMENT_3D('',#604,#503,#504);
#421=AXIS2_PLACEMENT_3D('',#605,#505,#506);
#422=AXIS2_PLACEMENT_3D('',#606,#507,$);
#423=AXIS2_PLACEMENT_3D('',#607,#508,$);
#424=AXIS2_PLACEMENT_3D('',#616,#513,$);
#425=AXIS2_PLACEMENT_3D('',#622,#517,$);
#426=AXIS2_PLACEMENT_3D('',#628,#521,$);
#427=AXIS2_PLACEMENT_3D('',#634,#525,$);
#428=AXIS2_PLACEMENT_3D('',#640,#529,$);
#429=AXIS2_PLACEMENT_3D('',#643,#532,$);
#430=AXIS2_PLACEMENT_3D('',#644,#533,$);
#431=AXIS2_PLACEMENT_3D('',#645,#534,#535);
#432=AXIS2_PLACEMENT_3D('',#646,#536,$);
#433=AXIS2_PLACEMENT_3D('',#647,#537,#538);
#434=AXIS2_PLACEMENT_3D('',#648,#539,#540);
#435=AXIS2_PLACEMENT_3D('',#649,#541,#542);
#436=AXIS2_PLACEMENT_3D('',#650,#543,$);
#437=DIRECTION('',(1.,0.,0.));
#438=DIRECTION('',(0.,4.25,0.));
#439=DIRECTION('',(1.,0.,0.));
#440=DIRECTION('',(1.,0.,0.));
#441=DIRECTION('',(0.,4.25,0.));
#442=DIRECTION('',(1.,0.,0.));
#443=DIRECTION('',(0.,4.25,0.));
#444=DIRECTION('',(-1.,0.,0.));
#445=DIRECTION('',(1.,0.,0.));
#446=DIRECTION('',(0.,4.25,0.));
#447=DIRECTION('',(1.,0.,0.));
#448=DIRECTION('',(0.,-1.,1.22460635382238E-16));
#449=DIRECTION('',(0.,-5.20457700374511E-17,-0.425));
#450=DIRECTION('',(1.,0.,0.));
#451=DIRECTION('',(0.,3.825,0.));
#452=DIRECTION('',(1.,0.,0.));
#453=DIRECTION('',(0.,3.825,0.));
#454=DIRECTION('',(0.,-1.,1.22460635382238E-16));
#455=DIRECTION('',(0.,5.20457700374511E-17,0.425));
#456=DIRECTION('',(1.,0.,0.));
#457=DIRECTION('',(0.,4.25,0.));
#458=DIRECTION('',(-1.,0.,0.));
#459=DIRECTION('',(0.,2.2835,0.));
#460=DIRECTION('',(0.707106781186547,-0.707106781186547,0.));
#461=DIRECTION('',(1.,0.,0.));
#462=DIRECTION('',(0.,2.5,0.));
#463=DIRECTION('',(-0.707106781186547,-0.707106781186547,8.65927457071937E-17));
#464=DIRECTION('',(1.,0.,0.));
#465=DIRECTION('',(0.,2.067,0.));
#466=DIRECTION('',(1.,0.,0.));
#467=DIRECTION('',(0.,2.5,0.));
#468=DIRECTION('',(1.,0.,0.));
#469=DIRECTION('',(1.,0.,0.));
#470=DIRECTION('',(0.,2.5,0.));
#471=DIRECTION('',(-1.,0.,0.));
#472=DIRECTION('',(-1.,0.,0.));
#473=DIRECTION('',(0.,2.2835,0.));
#474=DIRECTION('',(0.707106781186547,-0.707106781186547,0.));
#475=DIRECTION('',(1.,0.,0.));
#476=DIRECTION('',(0.,2.5,0.));
#477=DIRECTION('',(-0.707106781186547,-0.707106781186547,8.65927457071937E-17));
#478=DIRECTION('',(1.,0.,0.));
#479=DIRECTION('',(0.,2.067,0.));
#480=DIRECTION('',(1.,0.,0.));
#481=DIRECTION('',(0.,2.5,0.));
#482=DIRECTION('',(1.,0.,1.55643918889473E-16));
#483=DIRECTION('',(-1.,0.,0.));
#484=DIRECTION('',(0.,2.5,0.));
#485=DIRECTION('',(-1.,0.,0.));
#486=DIRECTION('',(1.,0.,0.));
#487=DIRECTION('',(0.,2.5,0.));
#488=DIRECTION('',(1.,0.,0.));
#489=DIRECTION('',(0.,2.5,0.));
#490=DIRECTION('',(-1.,0.,0.));
#491=DIRECTION('',(0.,2.5,0.));
#492=DIRECTION('',(-1.,0.,0.));
#493=DIRECTION('',(0.,2.2835,0.));
#494=DIRECTION('',(1.,0.,0.));
#495=DIRECTION('',(0.,2.067,0.));
#496=DIRECTION('',(-1.,0.,0.));
#497=DIRECTION('',(1.,0.,0.));
#498=DIRECTION('',(0.,2.5,0.));
#499=DIRECTION('',(1.,0.,0.));
#500=DIRECTION('',(0.,2.5,0.));
#501=DIRECTION('',(1.,0.,0.));
#502=DIRECTION('',(0.,2.5,0.));
#503=DIRECTION('',(-1.,0.,0.));
#504=DIRECTION('',(0.,2.2835,0.));
#505=DIRECTION('',(1.,0.,0.));
#506=DIRECTION('',(0.,2.067,0.));
#507=DIRECTION('',(1.,0.,0.));
#508=DIRECTION('',(0.,0.866025403784438,-0.5));
#509=DIRECTION('',(0.,0.499999999999999,0.866025403784439));
#510=DIRECTION('',(1.,0.,0.));
#511=DIRECTION('',(0.,-0.499999999999999,-0.866025403784439));
#512=DIRECTION('',(1.,0.,0.));
#513=DIRECTION('',(0.,0.866025403784439,0.5));
#514=DIRECTION('',(0.,-0.499999999999999,0.866025403784439));
#515=DIRECTION('',(0.,0.499999999999999,-0.866025403784439));
#516=DIRECTION('',(1.,0.,0.));
#517=DIRECTION('',(0.,1.92296268638356E-16,1.));
#518=DIRECTION('',(0.,-1.,0.));
#519=DIRECTION('',(0.,1.,0.));
#520=DIRECTION('',(1.,0.,0.));
#521=DIRECTION('',(0.,-0.866025403784439,0.5));
#522=DIRECTION('',(0.,-0.5,-0.866025403784439));
#523=DIRECTION('',(0.,0.5,0.866025403784439));
#524=DIRECTION('',(1.,0.,0.));
#525=DIRECTION('',(0.,0.,-1.));
#526=DIRECTION('',(0.,1.,0.));
#527=DIRECTION('',(1.,0.,0.));
#528=DIRECTION('',(0.,-1.,0.));
#529=DIRECTION('',(0.,-0.866025403784439,-0.5));
#530=DIRECTION('',(0.,0.5,-0.866025403784439));
#531=DIRECTION('',(0.,-0.5,0.866025403784439));
#532=DIRECTION('',(1.,0.,0.));
#533=DIRECTION('',(-1.,5.80508771045834E-17,0.));
#534=DIRECTION('',(1.,0.,0.));
#535=DIRECTION('',(0.,3.825,0.));
#536=DIRECTION('',(1.,0.,0.));
#537=DIRECTION('',(1.,0.,0.));
#538=DIRECTION('',(0.,4.25,0.));
#539=DIRECTION('',(1.,0.,0.));
#540=DIRECTION('',(0.,4.25,0.));
#541=DIRECTION('',(1.,0.,0.));
#542=DIRECTION('',(0.,4.25,0.));
#543=DIRECTION('',(1.,0.,0.));
#544=CARTESIAN_POINT('',(-2.2875,0.,0.));
#545=CARTESIAN_POINT('',(-4.575,4.25,0.));
#546=CARTESIAN_POINT('',(-4.575,4.25,-5.20474889637625E-16));
#547=CARTESIAN_POINT('',(0.,4.25,-5.20474889637625E-16));
#548=CARTESIAN_POINT('',(-4.575,0.,0.));
#549=CARTESIAN_POINT('',(-4.575,3.90356167228219E-16,4.25));
#550=CARTESIAN_POINT('',(-4.575,0.,0.));
#551=CARTESIAN_POINT('',(-4.575,-4.25,6.50585017415474E-16));
#552=CARTESIAN_POINT('',(0.,-4.25,5.2045770037451E-16));
#553=CARTESIAN_POINT('',(0.,-4.25,5.20466295006068E-16));
#554=CARTESIAN_POINT('',(0.,0.,0.));
#555=CARTESIAN_POINT('',(-4.575,0.,0.));
#556=CARTESIAN_POINT('',(-4.575,-4.68411930337059E-16,-3.825));
#557=CARTESIAN_POINT('',(-5.,-3.51320550505397E-16,-3.825));
#558=CARTESIAN_POINT('',(-4.575,-3.90356167228219E-16,-4.25));
#559=CARTESIAN_POINT('',(-5.,0.,0.));
#560=CARTESIAN_POINT('',(-5.,3.825,-4.68427400673863E-16));
#561=CARTESIAN_POINT('',(-5.,0.,0.));
#562=CARTESIAN_POINT('',(-5.,3.45236002799447E-16,3.825));
#563=CARTESIAN_POINT('',(-4.575,4.68411930337059E-16,3.825));
#564=CARTESIAN_POINT('',(-4.575,0.,0.));
#565=CARTESIAN_POINT('',(19.7835,0.,0.));
#566=CARTESIAN_POINT('',(19.567,2.5,0.));
#567=CARTESIAN_POINT('',(19.567,2.5,-3.06161699786838E-16));
#568=CARTESIAN_POINT('',(20.,2.067,9.1793239676008E-16));
#569=CARTESIAN_POINT('',(19.567,0.,0.));
#570=CARTESIAN_POINT('',(19.567,-2.5,0.));
#571=CARTESIAN_POINT('',(20.,-2.067,2.53126133335085E-16));
#572=CARTESIAN_POINT('',(20.,-2.067,0.));
#573=CARTESIAN_POINT('',(20.,0.,0.));
#574=CARTESIAN_POINT('',(10.9835,0.,0.));
#575=CARTESIAN_POINT('',(2.4,2.5,0.));
#576=CARTESIAN_POINT('',(2.4,2.5,-3.06161699786838E-16));
#577=CARTESIAN_POINT('',(2.4,0.,0.));
#578=CARTESIAN_POINT('',(2.4,-2.5,3.06156644121216E-16));
#579=CARTESIAN_POINT('',(19.567,-2.5,3.06151588455594E-16));
#580=CARTESIAN_POINT('',(2.1835,0.,0.));
#581=CARTESIAN_POINT('',(1.967,2.5,0.));
#582=CARTESIAN_POINT('',(1.967,2.5,-3.06161699786838E-16));
#583=CARTESIAN_POINT('',(2.4,2.067,9.1793239676008E-16));
#584=CARTESIAN_POINT('',(1.967,0.,0.));
#585=CARTESIAN_POINT('',(1.967,-2.5,-5.55111512312578E-16));
#586=CARTESIAN_POINT('',(2.4,-2.067,2.53126133335085E-16));
#587=CARTESIAN_POINT('',(2.4,-2.067,0.));
#588=CARTESIAN_POINT('',(2.4,0.,0.));
#589=CARTESIAN_POINT('',(0.733499999999999,0.,0.));
#590=CARTESIAN_POINT('',(0.,2.5,-3.06151588455594E-16));
#591=CARTESIAN_POINT('',(0.,2.5,1.53085905559041E-16));
#592=CARTESIAN_POINT('',(0.,0.,0.));
#593=CARTESIAN_POINT('',(5.55111512312578E-17,-2.5,0.));
#594=CARTESIAN_POINT('',(1.967,-2.5,3.06151588455594E-16));
#595=CARTESIAN_POINT('',(0.733499999999999,0.,0.));
#596=CARTESIAN_POINT('',(1.967,0.,0.));
#597=CARTESIAN_POINT('',(0.,0.,0.));
#598=CARTESIAN_POINT('',(2.1835,0.,0.));
#599=CARTESIAN_POINT('',(2.4,0.,0.));
#600=CARTESIAN_POINT('',(2.4,2.2835,0.));
#601=CARTESIAN_POINT('',(2.4,0.,0.));
#602=CARTESIAN_POINT('',(10.9835,0.,0.));
#603=CARTESIAN_POINT('',(19.567,0.,0.));
#604=CARTESIAN_POINT('',(19.7835,0.,0.));
#605=CARTESIAN_POINT('',(20.,0.,0.));
#606=CARTESIAN_POINT('',(20.,1.0335,0.));
#607=CARTESIAN_POINT('',(-6.,1.73205080756888,-1.));
#608=CARTESIAN_POINT('',(-5.,1.15470053837925,-2.));
#609=CARTESIAN_POINT('',(-5.,1.15470053837925,-2.));
#610=CARTESIAN_POINT('',(-5.,2.3094010767585,-7.7715611723761E-16));
#611=CARTESIAN_POINT('',(-5.,1.15470053837925,-2.));
#612=CARTESIAN_POINT('',(-2.5,1.15470053837925,-2.));
#613=CARTESIAN_POINT('',(-2.5,2.3094010767585,-4.24220755042258E-16));
#614=CARTESIAN_POINT('',(-2.5,2.3094010767585,-6.66133814775094E-16));
#615=CARTESIAN_POINT('',(-5.,2.3094010767585,-4.24220755042258E-16));
#616=CARTESIAN_POINT('',(-6.,1.73205080756888,0.999999999999999));
#617=CARTESIAN_POINT('',(-5.,2.3094010767585,-4.24220755042258E-16));
#618=CARTESIAN_POINT('',(-5.,1.15470053837925,2.));
#619=CARTESIAN_POINT('',(-2.5,1.15470053837925,2.));
#620=CARTESIAN_POINT('',(-2.5,1.15470053837925,2.));
#621=CARTESIAN_POINT('',(-5.,1.15470053837925,2.));
#622=CARTESIAN_POINT('',(-6.,8.88178419700125E-16,2.));
#623=CARTESIAN_POINT('',(-5.,1.15470053837925,2.));
#624=CARTESIAN_POINT('',(-5.,-1.15470053837925,2.));
#625=CARTESIAN_POINT('',(-2.5,-1.15470053837925,2.));
#626=CARTESIAN_POINT('',(-2.5,-1.15470053837925,2.));
#627=CARTESIAN_POINT('',(-5.,-1.15470053837925,2.));
#628=CARTESIAN_POINT('',(-6.,-1.73205080756888,1.));
#629=CARTESIAN_POINT('',(-5.,-1.15470053837925,2.));
#630=CARTESIAN_POINT('',(-5.,-2.3094010767585,1.66533453693773E-16));
#631=CARTESIAN_POINT('',(-2.5,-2.3094010767585,1.41410031829988E-16));
#632=CARTESIAN_POINT('',(-2.5,-2.3094010767585,5.55111512312578E-17));
#633=CARTESIAN_POINT('',(-5.,-2.3094010767585,1.41410031829988E-16));
#634=CARTESIAN_POINT('',(-6.,-4.44089209850063E-16,-2.));
#635=CARTESIAN_POINT('',(-5.,-1.15470053837925,-2.));
#636=CARTESIAN_POINT('',(-5.,-1.15470053837925,-2.));
#637=CARTESIAN_POINT('',(-5.,-1.15470053837925,-2.));
#638=CARTESIAN_POINT('',(-2.5,-1.15470053837925,-2.));
#639=CARTESIAN_POINT('',(-2.5,1.15470053837925,-2.));
#640=CARTESIAN_POINT('',(-6.,-1.73205080756888,-1.));
#641=CARTESIAN_POINT('',(-5.,-2.3094010767585,1.41410031829988E-16));
#642=CARTESIAN_POINT('',(-2.5,-1.15470053837925,-2.));
#643=CARTESIAN_POINT('',(-2.5,-1.42983268322937E-16,0.));
#644=CARTESIAN_POINT('',(-5.,1.9125,0.));
#645=CARTESIAN_POINT('',(-5.,0.,0.));
#646=CARTESIAN_POINT('',(-4.575,0.,0.));
#647=CARTESIAN_POINT('',(-4.575,0.,0.));
#648=CARTESIAN_POINT('',(-2.2875,0.,0.));
#649=CARTESIAN_POINT('',(0.,0.,0.));
#650=CARTESIAN_POINT('',(0.,2.125,0.));
#651=CYLINDRICAL_SURFACE('',#391,4.25);
#652=CYLINDRICAL_SURFACE('',#404,2.5);
#653=CYLINDRICAL_SURFACE('',#409,2.5);
#654=CYLINDRICAL_SURFACE('',#411,2.5);
#655=CYLINDRICAL_SURFACE('',#418,2.5);
#656=CYLINDRICAL_SURFACE('',#434,4.25);
#657=CLOSED_SHELL('',(#368,#369,#370,#371,#372,#373,#374,#375,#376,#377,
#378,#379,#380,#381,#382,#383,#384,#385,#386,#387,#388,#389,#390));
#658=MANIFOLD_SOLID_BREP('',#657);
#659=ADVANCED_BREP_SHAPE_REPRESENTATION('',(#658),#33);
ENDSEC;
END-ISO-10303-21;
