ISO-10303-21;
HEADER;
/* Generated by software containing ST-Developer
 * from STEP Tools, Inc. (www.steptools.com) 
 */

FILE_DESCRIPTION(
/* description */ ('Alibre Inc.'),
/* implementation_level */ '2;1');

FILE_NAME(
/* name */ 'export-3D4FDC43-15B9-49BE-BC9C-9CC91FA060F0',
/* time_stamp */ '2020-05-23T17:02:12+02:00',
/* author */ (''),
/* organization */ (''),
/* preprocessor_version */ 'ST-DEVELOPER v17',
/* originating_system */ 'Alibre',
/* authorisation */ '');

FILE_SCHEMA (('AUTOMOTIVE_DESIGN'));
ENDSEC;

DATA;
#10=STYLED_ITEM('NAME_0',(#42),#528);
#11=STYLED_ITEM('NAME_0',(#43),#318);
#12=STYLED_ITEM('NAME_0',(#43),#319);
#13=STYLED_ITEM('NAME_0',(#43),#320);
#14=STYLED_ITEM('NAME_0',(#43),#321);
#15=STYLED_ITEM('NAME_0',(#43),#322);
#16=STYLED_ITEM('NAME_0',(#43),#323);
#17=STYLED_ITEM('NAME_0',(#43),#324);
#18=STYLED_ITEM('NAME_0',(#43),#325);
#19=STYLED_ITEM('NAME_0',(#43),#326);
#20=STYLED_ITEM('NAME_0',(#43),#327);
#21=STYLED_ITEM('NAME_0',(#43),#328);
#22=STYLED_ITEM('NAME_0',(#43),#329);
#23=STYLED_ITEM('NAME_0',(#43),#330);
#24=STYLED_ITEM('NAME_0',(#43),#331);
#25=STYLED_ITEM('NAME_0',(#43),#332);
#26=STYLED_ITEM('NAME_0',(#43),#333);
#27=STYLED_ITEM('NAME_0',(#43),#334);
#28=STYLED_ITEM('NAME_0',(#43),#335);
#29=MECHANICAL_DESIGN_GEOMETRIC_PRESENTATION_REPRESENTATION('NAME_0',(#10,
#11,#12,#13,#14,#15,#16,#17,#18,#19,#20,#21,#22,#23,#24,#25,#26,#27,#28),
#58);
#30=COLOUR_RGB('',0.882352941176471,0.882352941176471,0.882352941176471);
#31=COLOUR_RGB('',0.686274509803922,0.686274509803922,0.686274509803922);
#32=FILL_AREA_STYLE_COLOUR('NAME_0',#30);
#33=FILL_AREA_STYLE_COLOUR('NAME_0',#31);
#34=FILL_AREA_STYLE('NAME_0',(#32));
#35=FILL_AREA_STYLE('NAME_0',(#33));
#36=SURFACE_STYLE_FILL_AREA(#34);
#37=SURFACE_STYLE_FILL_AREA(#35);
#38=SURFACE_SIDE_STYLE('NAME_0',(#36));
#39=SURFACE_SIDE_STYLE('NAME_0',(#37));
#40=SURFACE_STYLE_USAGE(.POSITIVE.,#38);
#41=SURFACE_STYLE_USAGE(.POSITIVE.,#39);
#42=PRESENTATION_STYLE_ASSIGNMENT((#40));
#43=PRESENTATION_STYLE_ASSIGNMENT((#41));
#44=PRODUCT_DEFINITION_CONTEXT('part definition',#51,'design');
#45=SHAPE_DEFINITION_REPRESENTATION(#46,#529);
#46=PRODUCT_DEFINITION_SHAPE('PRODUCT_VERSION_ID',
'PRODUCT_VERSION_DESCR',#47);
#47=PRODUCT_DEFINITION('PRODUCT_VERSION_ID','PRODUCT_VERSION_DESCR',#48,
#44);
#48=PRODUCT_DEFINITION_FORMATION_WITH_SPECIFIED_SOURCE(
'PRODUCT_VERSION_ID','PRODUCT_VERSION_DESCR',#53,.MADE.);
#49=PRODUCT_RELATED_PRODUCT_CATEGORY('part','part',(#53));
#50=APPLICATION_PROTOCOL_DEFINITION('Draft International Standard',
'automotive_design',1994,#51);
#51=APPLICATION_CONTEXT('automotive_Design');
#52=PRODUCT_CONTEXT('3D Mechanical Parts',#51,'mechanical');
#53=PRODUCT('07160-06x20','497 M6x20 DIN 912 metric bolt','',(#52));
#54=(
LENGTH_UNIT()
NAMED_UNIT(*)
SI_UNIT(.MILLI.,.METRE.)
);
#55=(
NAMED_UNIT(*)
PLANE_ANGLE_UNIT()
SI_UNIT($,.RADIAN.)
);
#56=(
NAMED_UNIT(*)
SI_UNIT($,.STERADIAN.)
SOLID_ANGLE_UNIT()
);
#57=UNCERTAINTY_MEASURE_WITH_UNIT(LENGTH_MEASURE(1.E-6),#54,
'DISTANCE_ACCURACY_VALUE',
'Maximum model space distance between geometric entities at asserted c
onnectivities');
#58=(
GEOMETRIC_REPRESENTATION_CONTEXT(3)
GLOBAL_UNCERTAINTY_ASSIGNED_CONTEXT((#57))
GLOBAL_UNIT_ASSIGNED_CONTEXT((#56,#55,#54))
REPRESENTATION_CONTEXT('ID1','3D')
);
#59=PLANE('',#350);
#60=PLANE('',#351);
#61=PLANE('',#352);
#62=PLANE('',#353);
#63=PLANE('',#354);
#64=PLANE('',#359);
#65=PLANE('',#360);
#66=PLANE('',#361);
#67=PLANE('',#362);
#68=PLANE('',#363);
#69=CYLINDRICAL_SURFACE('',#338,3.);
#70=CYLINDRICAL_SURFACE('',#344,5.);
#71=CYLINDRICAL_SURFACE('',#347,5.);
#72=CYLINDRICAL_SURFACE('',#357,3.);
#73=CIRCLE('',#337,2.49);
#74=CIRCLE('',#339,3.);
#75=CIRCLE('',#340,3.);
#76=CIRCLE('',#342,2.3865);
#77=CIRCLE('',#343,3.);
#78=CIRCLE('',#345,5.);
#79=CIRCLE('',#346,5.);
#80=CIRCLE('',#348,5.);
#81=CIRCLE('',#349,5.);
#82=CIRCLE('',#355,2.3865);
#83=CIRCLE('',#358,3.);
#84=CIRCLE('',#364,2.49);
#85=VERTEX_POINT('',#368);
#86=VERTEX_POINT('',#369);
#87=VERTEX_POINT('',#371);
#88=VERTEX_POINT('',#375);
#89=VERTEX_POINT('',#376);
#90=VERTEX_POINT('',#378);
#91=VERTEX_POINT('',#380);
#92=VERTEX_POINT('',#384);
#93=VERTEX_POINT('',#386);
#94=VERTEX_POINT('',#391);
#95=VERTEX_POINT('',#392);
#96=VERTEX_POINT('',#394);
#97=VERTEX_POINT('',#396);
#98=VERTEX_POINT('',#403);
#99=VERTEX_POINT('',#404);
#100=VERTEX_POINT('',#406);
#101=VERTEX_POINT('',#408);
#102=VERTEX_POINT('',#410);
#103=VERTEX_POINT('',#412);
#104=VERTEX_POINT('',#416);
#105=VERTEX_POINT('',#418);
#106=VERTEX_POINT('',#422);
#107=VERTEX_POINT('',#426);
#108=VERTEX_POINT('',#436);
#109=VERTEX_POINT('',#440);
#110=VECTOR('',#449,1.);
#111=VECTOR('',#450,1.);
#112=VECTOR('',#455,1.);
#113=VECTOR('',#458,1.);
#114=VECTOR('',#463,1.);
#115=VECTOR('',#466,1.);
#116=VECTOR('',#471,1.);
#117=VECTOR('',#474,1.);
#118=VECTOR('',#484,1.);
#119=VECTOR('',#485,1.);
#120=VECTOR('',#486,1.);
#121=VECTOR('',#487,1.);
#122=VECTOR('',#488,1.);
#123=VECTOR('',#489,1.);
#124=VECTOR('',#491,1.);
#125=VECTOR('',#492,1.);
#126=VECTOR('',#493,1.);
#127=VECTOR('',#495,1.);
#128=VECTOR('',#496,1.);
#129=VECTOR('',#498,1.);
#130=VECTOR('',#499,1.);
#131=VECTOR('',#511,1.);
#132=VECTOR('',#512,1.);
#133=VECTOR('',#514,1.);
#134=VECTOR('',#515,1.);
#135=VECTOR('',#517,1.);
#136=LINE('',#367,#110);
#137=LINE('',#370,#111);
#138=LINE('',#374,#112);
#139=LINE('',#379,#113);
#140=LINE('',#383,#114);
#141=LINE('',#387,#115);
#142=LINE('',#390,#116);
#143=LINE('',#395,#117);
#144=LINE('',#402,#118);
#145=LINE('',#405,#119);
#146=LINE('',#407,#120);
#147=LINE('',#409,#121);
#148=LINE('',#411,#122);
#149=LINE('',#413,#123);
#150=LINE('',#415,#124);
#151=LINE('',#417,#125);
#152=LINE('',#419,#126);
#153=LINE('',#421,#127);
#154=LINE('',#423,#128);
#155=LINE('',#425,#129);
#156=LINE('',#427,#130);
#157=LINE('',#435,#131);
#158=LINE('',#437,#132);
#159=LINE('',#439,#133);
#160=LINE('',#441,#134);
#161=LINE('',#443,#135);
#162=EDGE_CURVE('',#85,#86,#136,.T.);
#163=EDGE_CURVE('',#87,#85,#137,.T.);
#164=EDGE_CURVE('',#86,#87,#73,.T.);
#165=EDGE_CURVE('',#88,#89,#138,.T.);
#166=EDGE_CURVE('',#90,#88,#74,.T.);
#167=EDGE_CURVE('',#91,#90,#139,.T.);
#168=EDGE_CURVE('',#91,#89,#75,.T.);
#169=EDGE_CURVE('',#92,#90,#140,.T.);
#170=EDGE_CURVE('',#93,#92,#76,.T.);
#171=EDGE_CURVE('',#88,#93,#141,.T.);
#172=EDGE_CURVE('',#88,#90,#77,.T.);
#173=EDGE_CURVE('',#94,#95,#142,.T.);
#174=EDGE_CURVE('',#96,#94,#78,.T.);
#175=EDGE_CURVE('',#97,#96,#143,.T.);
#176=EDGE_CURVE('',#97,#95,#79,.T.);
#177=EDGE_CURVE('',#95,#97,#80,.T.);
#178=EDGE_CURVE('',#94,#96,#81,.T.);
#179=EDGE_CURVE('',#98,#99,#144,.T.);
#180=EDGE_CURVE('',#99,#100,#145,.T.);
#181=EDGE_CURVE('',#100,#101,#146,.T.);
#182=EDGE_CURVE('',#101,#102,#147,.T.);
#183=EDGE_CURVE('',#102,#103,#148,.T.);
#184=EDGE_CURVE('',#103,#98,#149,.T.);
#185=EDGE_CURVE('',#104,#99,#150,.T.);
#186=EDGE_CURVE('',#104,#105,#151,.T.);
#187=EDGE_CURVE('',#105,#100,#152,.T.);
#188=EDGE_CURVE('',#105,#106,#153,.T.);
#189=EDGE_CURVE('',#106,#101,#154,.T.);
#190=EDGE_CURVE('',#107,#98,#155,.T.);
#191=EDGE_CURVE('',#107,#104,#156,.T.);
#192=EDGE_CURVE('',#92,#93,#82,.T.);
#193=EDGE_CURVE('',#89,#91,#83,.T.);
#194=EDGE_CURVE('',#106,#108,#157,.T.);
#195=EDGE_CURVE('',#108,#102,#158,.T.);
#196=EDGE_CURVE('',#108,#109,#159,.T.);
#197=EDGE_CURVE('',#109,#103,#160,.T.);
#198=EDGE_CURVE('',#109,#107,#161,.T.);
#199=EDGE_CURVE('',#87,#86,#84,.T.);
#200=ORIENTED_EDGE('',*,*,#162,.F.);
#201=ORIENTED_EDGE('',*,*,#163,.F.);
#202=ORIENTED_EDGE('',*,*,#164,.F.);
#203=ORIENTED_EDGE('',*,*,#165,.F.);
#204=ORIENTED_EDGE('',*,*,#166,.F.);
#205=ORIENTED_EDGE('',*,*,#167,.F.);
#206=ORIENTED_EDGE('',*,*,#168,.T.);
#207=ORIENTED_EDGE('',*,*,#169,.F.);
#208=ORIENTED_EDGE('',*,*,#170,.F.);
#209=ORIENTED_EDGE('',*,*,#171,.F.);
#210=ORIENTED_EDGE('',*,*,#172,.T.);
#211=ORIENTED_EDGE('',*,*,#173,.F.);
#212=ORIENTED_EDGE('',*,*,#174,.F.);
#213=ORIENTED_EDGE('',*,*,#175,.F.);
#214=ORIENTED_EDGE('',*,*,#176,.T.);
#215=ORIENTED_EDGE('',*,*,#173,.T.);
#216=ORIENTED_EDGE('',*,*,#177,.T.);
#217=ORIENTED_EDGE('',*,*,#175,.T.);
#218=ORIENTED_EDGE('',*,*,#178,.F.);
#219=ORIENTED_EDGE('',*,*,#177,.F.);
#220=ORIENTED_EDGE('',*,*,#176,.F.);
#221=ORIENTED_EDGE('',*,*,#179,.T.);
#222=ORIENTED_EDGE('',*,*,#180,.T.);
#223=ORIENTED_EDGE('',*,*,#181,.T.);
#224=ORIENTED_EDGE('',*,*,#182,.T.);
#225=ORIENTED_EDGE('',*,*,#183,.T.);
#226=ORIENTED_EDGE('',*,*,#184,.T.);
#227=ORIENTED_EDGE('',*,*,#180,.F.);
#228=ORIENTED_EDGE('',*,*,#185,.F.);
#229=ORIENTED_EDGE('',*,*,#186,.T.);
#230=ORIENTED_EDGE('',*,*,#187,.T.);
#231=ORIENTED_EDGE('',*,*,#181,.F.);
#232=ORIENTED_EDGE('',*,*,#187,.F.);
#233=ORIENTED_EDGE('',*,*,#188,.T.);
#234=ORIENTED_EDGE('',*,*,#189,.T.);
#235=ORIENTED_EDGE('',*,*,#179,.F.);
#236=ORIENTED_EDGE('',*,*,#190,.F.);
#237=ORIENTED_EDGE('',*,*,#191,.T.);
#238=ORIENTED_EDGE('',*,*,#185,.T.);
#239=ORIENTED_EDGE('',*,*,#170,.T.);
#240=ORIENTED_EDGE('',*,*,#192,.T.);
#241=ORIENTED_EDGE('',*,*,#169,.T.);
#242=ORIENTED_EDGE('',*,*,#166,.T.);
#243=ORIENTED_EDGE('',*,*,#171,.T.);
#244=ORIENTED_EDGE('',*,*,#192,.F.);
#245=ORIENTED_EDGE('',*,*,#165,.T.);
#246=ORIENTED_EDGE('',*,*,#193,.T.);
#247=ORIENTED_EDGE('',*,*,#167,.T.);
#248=ORIENTED_EDGE('',*,*,#172,.F.);
#249=ORIENTED_EDGE('',*,*,#178,.T.);
#250=ORIENTED_EDGE('',*,*,#174,.T.);
#251=ORIENTED_EDGE('',*,*,#193,.F.);
#252=ORIENTED_EDGE('',*,*,#168,.F.);
#253=ORIENTED_EDGE('',*,*,#182,.F.);
#254=ORIENTED_EDGE('',*,*,#189,.F.);
#255=ORIENTED_EDGE('',*,*,#194,.T.);
#256=ORIENTED_EDGE('',*,*,#195,.T.);
#257=ORIENTED_EDGE('',*,*,#183,.F.);
#258=ORIENTED_EDGE('',*,*,#195,.F.);
#259=ORIENTED_EDGE('',*,*,#196,.T.);
#260=ORIENTED_EDGE('',*,*,#197,.T.);
#261=ORIENTED_EDGE('',*,*,#184,.F.);
#262=ORIENTED_EDGE('',*,*,#197,.F.);
#263=ORIENTED_EDGE('',*,*,#198,.T.);
#264=ORIENTED_EDGE('',*,*,#190,.T.);
#265=ORIENTED_EDGE('',*,*,#191,.F.);
#266=ORIENTED_EDGE('',*,*,#198,.F.);
#267=ORIENTED_EDGE('',*,*,#196,.F.);
#268=ORIENTED_EDGE('',*,*,#194,.F.);
#269=ORIENTED_EDGE('',*,*,#188,.F.);
#270=ORIENTED_EDGE('',*,*,#186,.F.);
#271=ORIENTED_EDGE('',*,*,#164,.T.);
#272=ORIENTED_EDGE('',*,*,#199,.T.);
#273=ORIENTED_EDGE('',*,*,#162,.T.);
#274=ORIENTED_EDGE('',*,*,#199,.F.);
#275=ORIENTED_EDGE('',*,*,#163,.T.);
#276=EDGE_LOOP('',(#200,#201,#202));
#277=EDGE_LOOP('',(#203,#204,#205,#206));
#278=EDGE_LOOP('',(#207,#208,#209,#210));
#279=EDGE_LOOP('',(#211,#212,#213,#214));
#280=EDGE_LOOP('',(#215,#216,#217,#218));
#281=EDGE_LOOP('',(#219,#220));
#282=EDGE_LOOP('',(#221,#222,#223,#224,#225,#226));
#283=EDGE_LOOP('',(#227,#228,#229,#230));
#284=EDGE_LOOP('',(#231,#232,#233,#234));
#285=EDGE_LOOP('',(#235,#236,#237,#238));
#286=EDGE_LOOP('',(#239,#240));
#287=EDGE_LOOP('',(#241,#242,#243,#244));
#288=EDGE_LOOP('',(#245,#246,#247,#248));
#289=EDGE_LOOP('',(#249,#250));
#290=EDGE_LOOP('',(#251,#252));
#291=EDGE_LOOP('',(#253,#254,#255,#256));
#292=EDGE_LOOP('',(#257,#258,#259,#260));
#293=EDGE_LOOP('',(#261,#262,#263,#264));
#294=EDGE_LOOP('',(#265,#266,#267,#268,#269,#270));
#295=EDGE_LOOP('',(#271,#272));
#296=EDGE_LOOP('',(#273,#274,#275));
#297=FACE_BOUND('',#276,.T.);
#298=FACE_BOUND('',#277,.T.);
#299=FACE_BOUND('',#278,.T.);
#300=FACE_BOUND('',#279,.T.);
#301=FACE_BOUND('',#280,.T.);
#302=FACE_BOUND('',#281,.T.);
#303=FACE_BOUND('',#282,.T.);
#304=FACE_BOUND('',#283,.T.);
#305=FACE_BOUND('',#284,.T.);
#306=FACE_BOUND('',#285,.T.);
#307=FACE_BOUND('',#286,.T.);
#308=FACE_BOUND('',#287,.T.);
#309=FACE_BOUND('',#288,.T.);
#310=FACE_BOUND('',#289,.T.);
#311=FACE_BOUND('',#290,.T.);
#312=FACE_BOUND('',#291,.T.);
#313=FACE_BOUND('',#292,.T.);
#314=FACE_BOUND('',#293,.T.);
#315=FACE_BOUND('',#294,.T.);
#316=FACE_BOUND('',#295,.T.);
#317=FACE_BOUND('',#296,.T.);
#318=ADVANCED_FACE('',(#297),#523,.F.);
#319=ADVANCED_FACE('',(#298),#69,.T.);
#320=ADVANCED_FACE('',(#299),#524,.T.);
#321=ADVANCED_FACE('',(#300),#70,.T.);
#322=ADVANCED_FACE('',(#301),#71,.T.);
#323=ADVANCED_FACE('',(#302,#303),#59,.F.);
#324=ADVANCED_FACE('',(#304),#60,.T.);
#325=ADVANCED_FACE('',(#305),#61,.T.);
#326=ADVANCED_FACE('',(#306),#62,.T.);
#327=ADVANCED_FACE('',(#307),#63,.F.);
#328=ADVANCED_FACE('',(#308),#525,.T.);
#329=ADVANCED_FACE('',(#309),#72,.T.);
#330=ADVANCED_FACE('',(#310,#311),#64,.F.);
#331=ADVANCED_FACE('',(#312),#65,.T.);
#332=ADVANCED_FACE('',(#313),#66,.T.);
#333=ADVANCED_FACE('',(#314),#67,.T.);
#334=ADVANCED_FACE('',(#315,#316),#68,.F.);
#335=ADVANCED_FACE('',(#317),#526,.F.);
#336=AXIS2_PLACEMENT_3D('',#366,#447,#448);
#337=AXIS2_PLACEMENT_3D('',#372,#451,#452);
#338=AXIS2_PLACEMENT_3D('',#373,#453,#454);
#339=AXIS2_PLACEMENT_3D('',#377,#456,#457);
#340=AXIS2_PLACEMENT_3D('',#381,#459,#460);
#341=AXIS2_PLACEMENT_3D('',#382,#461,#462);
#342=AXIS2_PLACEMENT_3D('',#385,#464,#465);
#343=AXIS2_PLACEMENT_3D('',#388,#467,#468);
#344=AXIS2_PLACEMENT_3D('',#389,#469,#470);
#345=AXIS2_PLACEMENT_3D('',#393,#472,#473);
#346=AXIS2_PLACEMENT_3D('',#397,#475,#476);
#347=AXIS2_PLACEMENT_3D('',#398,#477,#478);
#348=AXIS2_PLACEMENT_3D('',#399,#479,#480);
#349=AXIS2_PLACEMENT_3D('',#400,#481,#482);
#350=AXIS2_PLACEMENT_3D('',#401,#483,$);
#351=AXIS2_PLACEMENT_3D('',#414,#490,$);
#352=AXIS2_PLACEMENT_3D('',#420,#494,$);
#353=AXIS2_PLACEMENT_3D('',#424,#497,$);
#354=AXIS2_PLACEMENT_3D('',#428,#500,$);
#355=AXIS2_PLACEMENT_3D('',#429,#501,#502);
#356=AXIS2_PLACEMENT_3D('',#430,#503,#504);
#357=AXIS2_PLACEMENT_3D('',#431,#505,#506);
#358=AXIS2_PLACEMENT_3D('',#432,#507,#508);
#359=AXIS2_PLACEMENT_3D('',#433,#509,$);
#360=AXIS2_PLACEMENT_3D('',#434,#510,$);
#361=AXIS2_PLACEMENT_3D('',#438,#513,$);
#362=AXIS2_PLACEMENT_3D('',#442,#516,$);
#363=AXIS2_PLACEMENT_3D('',#444,#518,$);
#364=AXIS2_PLACEMENT_3D('',#445,#519,#520);
#365=AXIS2_PLACEMENT_3D('',#446,#521,#522);
#366=CARTESIAN_POINT('',(-3.,0.,0.));
#367=CARTESIAN_POINT('',(-1.56239782971783,0.,0.));
#368=CARTESIAN_POINT('',(-1.56239782971783,-1.23259516440783E-31,0.));
#369=CARTESIAN_POINT('',(-3.,-1.52468526493845E-16,-2.49));
#370=CARTESIAN_POINT('',(-3.,3.04926982101772E-16,2.49));
#371=CARTESIAN_POINT('',(-3.,1.52468526493845E-16,2.49));
#372=CARTESIAN_POINT('',(-3.,0.,0.));
#373=CARTESIAN_POINT('',(20.,0.,0.));
#374=CARTESIAN_POINT('',(19.3865,0.,-3.));
#375=CARTESIAN_POINT('',(19.3865,-1.83697019872103E-16,-3.));
#376=CARTESIAN_POINT('',(0.,-3.67394039744206E-16,-3.));
#377=CARTESIAN_POINT('',(19.3865,0.,0.));
#378=CARTESIAN_POINT('',(19.3865,1.83697019872103E-16,3.));
#379=CARTESIAN_POINT('',(0.,3.67381906146713E-16,3.));
#380=CARTESIAN_POINT('',(0.,1.83697019872103E-16,3.));
#381=CARTESIAN_POINT('',(0.,0.,0.));
#382=CARTESIAN_POINT('',(19.3865,0.,0.));
#383=CARTESIAN_POINT('',(20.,2.9225230633971E-16,2.3865));
#384=CARTESIAN_POINT('',(20.,1.32477362413397E-15,2.3865));
#385=CARTESIAN_POINT('',(20.,0.,0.));
#386=CARTESIAN_POINT('',(20.,-7.67556940690659E-16,-2.3865));
#387=CARTESIAN_POINT('',(19.3865,0.,-3.));
#388=CARTESIAN_POINT('',(19.3865,0.,0.));
#389=CARTESIAN_POINT('',(20.,0.,0.));
#390=CARTESIAN_POINT('',(0.,0.,-5.));
#391=CARTESIAN_POINT('',(0.,-6.12323399573677E-16,-5.));
#392=CARTESIAN_POINT('',(-6.,-6.12323399573677E-16,-5.));
#393=CARTESIAN_POINT('',(0.,0.,0.));
#394=CARTESIAN_POINT('',(0.,7.50240798305657E-16,5.));
#395=CARTESIAN_POINT('',(-6.,6.12303176911189E-16,5.));
#396=CARTESIAN_POINT('',(-6.,6.12313288242433E-16,5.));
#397=CARTESIAN_POINT('',(-6.,0.,0.));
#398=CARTESIAN_POINT('',(20.,0.,0.));
#399=CARTESIAN_POINT('',(-6.,0.,0.));
#400=CARTESIAN_POINT('',(0.,0.,0.));
#401=CARTESIAN_POINT('',(-6.,0.,0.));
#402=CARTESIAN_POINT('',(-6.,1.44337567297406,2.5));
#403=CARTESIAN_POINT('',(-6.,1.44337567297406,2.5));
#404=CARTESIAN_POINT('',(-6.,-1.44337567297406,2.5));
#405=CARTESIAN_POINT('',(-6.,-1.44337567297406,2.5));
#406=CARTESIAN_POINT('',(-6.,-2.88675134594813,-1.77635683940025E-15));
#407=CARTESIAN_POINT('',(-6.,-2.88675134594813,0.));
#408=CARTESIAN_POINT('',(-6.,-1.44337567297406,-2.5));
#409=CARTESIAN_POINT('',(-6.,-1.44337567297406,-2.5));
#410=CARTESIAN_POINT('',(-6.,1.44337567297406,-2.5));
#411=CARTESIAN_POINT('',(-6.,1.44337567297406,-2.5));
#412=CARTESIAN_POINT('',(-6.,2.88675134594813,1.77635683940025E-15));
#413=CARTESIAN_POINT('',(-6.,2.88675134594813,0.));
#414=CARTESIAN_POINT('',(-3.,-1.44337567297406,2.5));
#415=CARTESIAN_POINT('',(-3.,-1.44337567297406,2.5));
#416=CARTESIAN_POINT('',(-3.,-1.44337567297406,2.5));
#417=CARTESIAN_POINT('',(-3.,-1.44337567297406,2.5));
#418=CARTESIAN_POINT('',(-3.,-2.88675134594813,-1.77635683940025E-15));
#419=CARTESIAN_POINT('',(-3.,-2.88675134594813,0.));
#420=CARTESIAN_POINT('',(-3.,-2.88675134594813,0.));
#421=CARTESIAN_POINT('',(-3.,-2.88675134594813,0.));
#422=CARTESIAN_POINT('',(-3.,-1.44337567297406,-2.5));
#423=CARTESIAN_POINT('',(-3.,-1.44337567297406,-2.5));
#424=CARTESIAN_POINT('',(-3.,1.44337567297406,2.5));
#425=CARTESIAN_POINT('',(-3.,1.44337567297406,2.5));
#426=CARTESIAN_POINT('',(-3.,1.44337567297406,2.5));
#427=CARTESIAN_POINT('',(-3.,1.44337567297406,2.5));
#428=CARTESIAN_POINT('',(20.,2.3865,0.));
#429=CARTESIAN_POINT('',(20.,0.,0.));
#430=CARTESIAN_POINT('',(19.3865,0.,0.));
#431=CARTESIAN_POINT('',(20.,0.,0.));
#432=CARTESIAN_POINT('',(0.,0.,0.));
#433=CARTESIAN_POINT('',(0.,5.,0.));
#434=CARTESIAN_POINT('',(-3.,-1.44337567297406,-2.5));
#435=CARTESIAN_POINT('',(-3.,-1.44337567297406,-2.5));
#436=CARTESIAN_POINT('',(-3.,1.44337567297406,-2.5));
#437=CARTESIAN_POINT('',(-3.,1.44337567297406,-2.5));
#438=CARTESIAN_POINT('',(-3.,1.44337567297406,-2.5));
#439=CARTESIAN_POINT('',(-3.,1.44337567297406,-2.5));
#440=CARTESIAN_POINT('',(-3.,2.88675134594813,1.77635683940025E-15));
#441=CARTESIAN_POINT('',(-3.,2.88675134594813,0.));
#442=CARTESIAN_POINT('',(-3.,2.88675134594813,0.));
#443=CARTESIAN_POINT('',(-3.,2.88675134594813,0.));
#444=CARTESIAN_POINT('',(-3.,0.,0.));
#445=CARTESIAN_POINT('',(-3.,0.,0.));
#446=CARTESIAN_POINT('',(-3.,0.,0.));
#447=DIRECTION('',(-1.,0.,0.));
#448=DIRECTION('',(0.,0.,2.49));
#449=DIRECTION('',(-0.5,0.,-0.866025403784438));
#450=DIRECTION('',(0.5,-1.06054021204601E-16,-0.866025403784438));
#451=DIRECTION('',(1.,0.,0.));
#452=DIRECTION('',(0.,0.,-2.49));
#453=DIRECTION('',(1.,0.,0.));
#454=DIRECTION('',(0.,0.,-3.));
#455=DIRECTION('',(-1.,0.,0.));
#456=DIRECTION('',(1.,0.,0.));
#457=DIRECTION('',(0.,0.,-3.));
#458=DIRECTION('',(1.,0.,0.));
#459=DIRECTION('',(1.,0.,0.));
#460=DIRECTION('',(0.,0.,-3.));
#461=DIRECTION('',(-1.,0.,0.));
#462=DIRECTION('',(0.,0.,3.));
#463=DIRECTION('',(-0.707106781186546,8.65927457071938E-17,0.707106781186548));
#464=DIRECTION('',(1.,0.,0.));
#465=DIRECTION('',(0.,0.,-2.3865));
#466=DIRECTION('',(0.707106781186546,0.,0.707106781186548));
#467=DIRECTION('',(1.,0.,0.));
#468=DIRECTION('',(0.,0.,-3.));
#469=DIRECTION('',(1.,0.,0.));
#470=DIRECTION('',(0.,0.,-5.));
#471=DIRECTION('',(-1.,0.,0.));
#472=DIRECTION('',(1.,0.,0.));
#473=DIRECTION('',(0.,0.,-5.));
#474=DIRECTION('',(1.,0.,0.));
#475=DIRECTION('',(1.,0.,0.));
#476=DIRECTION('',(0.,0.,-5.));
#477=DIRECTION('',(1.,0.,0.));
#478=DIRECTION('',(0.,0.,-5.));
#479=DIRECTION('',(1.,0.,0.));
#480=DIRECTION('',(0.,0.,-5.));
#481=DIRECTION('',(1.,0.,0.));
#482=DIRECTION('',(0.,0.,-5.));
#483=DIRECTION('',(1.,0.,0.));
#484=DIRECTION('',(0.,-1.,0.));
#485=DIRECTION('',(0.,-0.500000000000001,-0.866025403784438));
#486=DIRECTION('',(0.,0.500000000000001,-0.866025403784438));
#487=DIRECTION('',(0.,1.,0.));
#488=DIRECTION('',(0.,0.500000000000001,0.866025403784438));
#489=DIRECTION('',(0.,-0.500000000000001,0.866025403784438));
#490=DIRECTION('',(0.,0.866025403784439,-0.5));
#491=DIRECTION('',(-1.,0.,0.));
#492=DIRECTION('',(0.,-0.500000000000001,-0.866025403784438));
#493=DIRECTION('',(-1.,0.,0.));
#494=DIRECTION('',(0.,0.866025403784439,0.5));
#495=DIRECTION('',(0.,0.500000000000001,-0.866025403784438));
#496=DIRECTION('',(-1.,0.,0.));
#497=DIRECTION('',(0.,0.,-1.));
#498=DIRECTION('',(-1.,0.,0.));
#499=DIRECTION('',(0.,-1.,0.));
#500=DIRECTION('',(-1.,0.,0.));
#501=DIRECTION('',(1.,0.,0.));
#502=DIRECTION('',(0.,0.,-2.3865));
#503=DIRECTION('',(-1.,0.,0.));
#504=DIRECTION('',(0.,0.,3.));
#505=DIRECTION('',(1.,0.,0.));
#506=DIRECTION('',(0.,0.,-3.));
#507=DIRECTION('',(1.,0.,0.));
#508=DIRECTION('',(0.,0.,-3.));
#509=DIRECTION('',(-1.,0.,0.));
#510=DIRECTION('',(0.,0.,1.));
#511=DIRECTION('',(0.,1.,0.));
#512=DIRECTION('',(-1.,0.,0.));
#513=DIRECTION('',(0.,-0.866025403784439,0.5));
#514=DIRECTION('',(0.,0.500000000000001,0.866025403784438));
#515=DIRECTION('',(-1.,0.,0.));
#516=DIRECTION('',(0.,-0.866025403784439,-0.5));
#517=DIRECTION('',(0.,-0.500000000000001,0.866025403784438));
#518=DIRECTION('',(1.,0.,0.));
#519=DIRECTION('',(1.,0.,0.));
#520=DIRECTION('',(0.,0.,-2.49));
#521=DIRECTION('',(-1.,0.,0.));
#522=DIRECTION('',(0.,0.,2.49));
#523=CONICAL_SURFACE('',#336,2.49,1.0471975511966);
#524=CONICAL_SURFACE('',#341,3.,0.785398163397446);
#525=CONICAL_SURFACE('',#356,3.,0.785398163397446);
#526=CONICAL_SURFACE('',#365,2.49,1.0471975511966);
#527=CLOSED_SHELL('',(#318,#319,#320,#321,#322,#323,#324,#325,#326,#327,
#328,#329,#330,#331,#332,#333,#334,#335));
#528=MANIFOLD_SOLID_BREP('',#527);
#529=ADVANCED_BREP_SHAPE_REPRESENTATION('',(#528),#58);
ENDSEC;
END-ISO-10303-21;
