ISO-10303-21;
HEADER;
/* Generated by software containing ST-Developer
 * from STEP Tools, Inc. (www.steptools.com) 
 */

FILE_DESCRIPTION(
/* description */ ('Alibre Inc.'),
/* implementation_level */ '2;1');

FILE_NAME(
/* name */ 'export-C8299A25-E2D0-4AEC-87AA-AEBAAB8867C2',
/* time_stamp */ '2021-04-02T13:42:13+02:00',
/* author */ (''),
/* organization */ (''),
/* preprocessor_version */ 'ST-DEVELOPER v17',
/* originating_system */ 'Alibre',
/* authorisation */ '');

FILE_SCHEMA (('AUTOMOTIVE_DESIGN'));
ENDSEC;

DATA;
#10=STYLED_ITEM('NAME_0',(#37),#450);
#11=STYLED_ITEM('NAME_0',(#38),#261);
#12=STYLED_ITEM('NAME_0',(#38),#262);
#13=STYLED_ITEM('NAME_0',(#38),#263);
#14=STYLED_ITEM('NAME_0',(#38),#264);
#15=STYLED_ITEM('NAME_0',(#38),#265);
#16=STYLED_ITEM('NAME_0',(#38),#266);
#17=STYLED_ITEM('NAME_0',(#38),#267);
#18=STYLED_ITEM('NAME_0',(#38),#268);
#19=STYLED_ITEM('NAME_0',(#38),#269);
#20=STYLED_ITEM('NAME_0',(#38),#270);
#21=STYLED_ITEM('NAME_0',(#38),#271);
#22=STYLED_ITEM('NAME_0',(#38),#272);
#23=STYLED_ITEM('NAME_0',(#38),#273);
#24=MECHANICAL_DESIGN_GEOMETRIC_PRESENTATION_REPRESENTATION('NAME_0',(#10,
#11,#12,#13,#14,#15,#16,#17,#18,#19,#20,#21,#22,#23),#53);
#25=COLOUR_RGB('',0.882352941176471,0.882352941176471,0.882352941176471);
#26=COLOUR_RGB('',0.686274509803922,0.686274509803922,0.686274509803922);
#27=FILL_AREA_STYLE_COLOUR('NAME_0',#25);
#28=FILL_AREA_STYLE_COLOUR('NAME_0',#26);
#29=FILL_AREA_STYLE('NAME_0',(#27));
#30=FILL_AREA_STYLE('NAME_0',(#28));
#31=SURFACE_STYLE_FILL_AREA(#29);
#32=SURFACE_STYLE_FILL_AREA(#30);
#33=SURFACE_SIDE_STYLE('NAME_0',(#31));
#34=SURFACE_SIDE_STYLE('NAME_0',(#32));
#35=SURFACE_STYLE_USAGE(.POSITIVE.,#33);
#36=SURFACE_STYLE_USAGE(.POSITIVE.,#34);
#37=PRESENTATION_STYLE_ASSIGNMENT((#35));
#38=PRESENTATION_STYLE_ASSIGNMENT((#36));
#39=PRODUCT_DEFINITION_CONTEXT('part definition',#46,'design');
#40=SHAPE_DEFINITION_REPRESENTATION(#41,#451);
#41=PRODUCT_DEFINITION_SHAPE('PRODUCT_VERSION_ID',
'PRODUCT_VERSION_DESCR',#42);
#42=PRODUCT_DEFINITION('PRODUCT_VERSION_ID','PRODUCT_VERSION_DESCR',#43,
#39);
#43=PRODUCT_DEFINITION_FORMATION_WITH_SPECIFIED_SOURCE(
'PRODUCT_VERSION_ID','PRODUCT_VERSION_DESCR',#48,.MADE.);
#44=PRODUCT_RELATED_PRODUCT_CATEGORY('part','part',(#48));
#45=APPLICATION_PROTOCOL_DEFINITION('Draft International Standard',
'automotive_design',1994,#46);
#46=APPLICATION_CONTEXT('automotive_Design');
#47=PRODUCT_CONTEXT('3D Mechanical Parts',#46,'mechanical');
#48=PRODUCT('HI_Hexagon nut DIN 934 M3 01300.030.001(High)',
'5211 M3 nut DIN934','',(#47));
#49=(
LENGTH_UNIT()
NAMED_UNIT(*)
SI_UNIT(.MILLI.,.METRE.)
);
#50=(
NAMED_UNIT(*)
PLANE_ANGLE_UNIT()
SI_UNIT($,.RADIAN.)
);
#51=(
NAMED_UNIT(*)
SI_UNIT($,.STERADIAN.)
SOLID_ANGLE_UNIT()
);
#52=UNCERTAINTY_MEASURE_WITH_UNIT(LENGTH_MEASURE(1.E-6),#49,
'DISTANCE_ACCURACY_VALUE',
'Maximum model space distance between geometric entities at asserted c
onnectivities');
#53=(
GEOMETRIC_REPRESENTATION_CONTEXT(3)
GLOBAL_UNCERTAINTY_ASSIGNED_CONTEXT((#52))
GLOBAL_UNIT_ASSIGNED_CONTEXT((#51,#50,#49))
REPRESENTATION_CONTEXT('ID1','3D')
);
#54=CYLINDRICAL_SURFACE('',#283,1.2295);
#55=VECTOR('',#407,1.);
#56=VECTOR('',#408,1.);
#57=VECTOR('',#410,1.);
#58=VECTOR('',#411,1.);
#59=VECTOR('',#413,1.);
#60=VECTOR('',#416,1.);
#61=VECTOR('',#423,1.);
#62=VECTOR('',#430,1.);
#63=VECTOR('',#442,1.);
#64=LINE('',#334,#55);
#65=LINE('',#340,#56);
#66=LINE('',#342,#57);
#67=LINE('',#348,#58);
#68=LINE('',#350,#59);
#69=LINE('',#356,#60);
#70=LINE('',#362,#61);
#71=LINE('',#368,#62);
#72=LINE('',#397,#63);
#73=PLANE('',#277);
#74=PLANE('',#278);
#75=PLANE('',#279);
#76=PLANE('',#289);
#77=PLANE('',#290);
#78=PLANE('',#293);
#79=PLANE('',#294);
#80=PLANE('',#295);
#81=(
BOUNDED_CURVE()
B_SPLINE_CURVE(2,(#306,#307,#308),.UNSPECIFIED.,.F.,.U.)
B_SPLINE_CURVE_WITH_KNOTS((3,3),(1.61706262735118,3.22552541807407),
 .UNSPECIFIED.)
CURVE()
GEOMETRIC_REPRESENTATION_ITEM()
RATIONAL_B_SPLINE_CURVE((1.07829502243123,1.07830664442999,1.0008769246294))
REPRESENTATION_ITEM('')
);
#82=(
BOUNDED_CURVE()
B_SPLINE_CURVE(2,(#310,#311,#312),.UNSPECIFIED.,.F.,.U.)
B_SPLINE_CURVE_WITH_KNOTS((3,3),(0.0090826162946858,3.2255254180715),
 .UNSPECIFIED.)
CURVE()
GEOMETRIC_REPRESENTATION_ITEM()
RATIONAL_B_SPLINE_CURVE((1.00087692462943,1.15571312372109,1.00087692462921))
REPRESENTATION_ITEM('')
);
#83=(
BOUNDED_CURVE()
B_SPLINE_CURVE(2,(#314,#315,#316),.UNSPECIFIED.,.F.,.U.)
B_SPLINE_CURVE_WITH_KNOTS((3,3),(0.0090826162956233,3.22552541807278),
 .UNSPECIFIED.)
CURVE()
GEOMETRIC_REPRESENTATION_ITEM()
RATIONAL_B_SPLINE_CURVE((1.00087692462952,1.15571312372119,1.0008769246293))
REPRESENTATION_ITEM('')
);
#84=(
BOUNDED_CURVE()
B_SPLINE_CURVE(2,(#318,#319,#320),.UNSPECIFIED.,.F.,.U.)
B_SPLINE_CURVE_WITH_KNOTS((3,3),(0.00908261629657417,3.22552541807407),
 .UNSPECIFIED.)
CURVE()
GEOMETRIC_REPRESENTATION_ITEM()
RATIONAL_B_SPLINE_CURVE((1.00087692462961,1.15571312372129,1.0008769246294))
REPRESENTATION_ITEM('')
);
#85=(
BOUNDED_CURVE()
B_SPLINE_CURVE(2,(#322,#323,#324),.UNSPECIFIED.,.F.,.U.)
B_SPLINE_CURVE_WITH_KNOTS((3,3),(0.0090826162946858,3.2255254180715),
 .UNSPECIFIED.)
CURVE()
GEOMETRIC_REPRESENTATION_ITEM()
RATIONAL_B_SPLINE_CURVE((1.00087692462943,1.15571312372109,1.00087692462921))
REPRESENTATION_ITEM('')
);
#86=(
BOUNDED_CURVE()
B_SPLINE_CURVE(2,(#326,#327,#328),.UNSPECIFIED.,.F.,.U.)
B_SPLINE_CURVE_WITH_KNOTS((3,3),(0.0090826162956233,3.22552541807278),
 .UNSPECIFIED.)
CURVE()
GEOMETRIC_REPRESENTATION_ITEM()
RATIONAL_B_SPLINE_CURVE((1.00087692462952,1.15571312372119,1.0008769246293))
REPRESENTATION_ITEM('')
);
#87=(
BOUNDED_CURVE()
B_SPLINE_CURVE(2,(#330,#331,#332),.UNSPECIFIED.,.F.,.U.)
B_SPLINE_CURVE_WITH_KNOTS((3,3),(0.00908261629657417,1.61706262735118),
 .UNSPECIFIED.)
CURVE()
GEOMETRIC_REPRESENTATION_ITEM()
RATIONAL_B_SPLINE_CURVE((1.00087692462961,1.0782834039208,1.07829502243123))
REPRESENTATION_ITEM('')
);
#88=(
BOUNDED_CURVE()
B_SPLINE_CURVE(2,(#336,#337,#338),.UNSPECIFIED.,.F.,.U.)
B_SPLINE_CURVE_WITH_KNOTS((3,3),(0.00908261630904296,3.225525418091),
 .UNSPECIFIED.)
CURVE()
GEOMETRIC_REPRESENTATION_ITEM()
RATIONAL_B_SPLINE_CURVE((1.00087692463082,1.15571312372269,1.0008769246306))
REPRESENTATION_ITEM('')
);
#89=(
BOUNDED_CURVE()
B_SPLINE_CURVE(2,(#344,#345,#346),.UNSPECIFIED.,.F.,.U.)
B_SPLINE_CURVE_WITH_KNOTS((3,3),(0.00908261630903921,3.225525418091),
 .UNSPECIFIED.)
CURVE()
GEOMETRIC_REPRESENTATION_ITEM()
RATIONAL_B_SPLINE_CURVE((1.00087692463082,1.15571312372269,1.0008769246306))
REPRESENTATION_ITEM('')
);
#90=(
BOUNDED_CURVE()
B_SPLINE_CURVE(2,(#352,#353,#354),.UNSPECIFIED.,.F.,.U.)
B_SPLINE_CURVE_WITH_KNOTS((3,3),(0.00908261630904296,3.225525418091),
 .UNSPECIFIED.)
CURVE()
GEOMETRIC_REPRESENTATION_ITEM()
RATIONAL_B_SPLINE_CURVE((1.00087692463082,1.15571312372269,1.0008769246306))
REPRESENTATION_ITEM('')
);
#91=(
BOUNDED_CURVE()
B_SPLINE_CURVE(2,(#383,#384,#385),.UNSPECIFIED.,.F.,.U.)
B_SPLINE_CURVE_WITH_KNOTS((3,3),(1.61706262736815,3.22552541809362),
 .UNSPECIFIED.)
CURVE()
GEOMETRIC_REPRESENTATION_ITEM()
RATIONAL_B_SPLINE_CURVE((1.07829502243273,1.07830664443149,1.00087692463079))
REPRESENTATION_ITEM('')
);
#92=(
BOUNDED_CURVE()
B_SPLINE_CURVE(2,(#386,#387,#388),.UNSPECIFIED.,.F.,.U.)
B_SPLINE_CURVE_WITH_KNOTS((3,3),(0.00908261631096807,3.22552541809362),
 .UNSPECIFIED.)
CURVE()
GEOMETRIC_REPRESENTATION_ITEM()
RATIONAL_B_SPLINE_CURVE((1.00087692463101,1.1557131237229,1.00087692463079))
REPRESENTATION_ITEM('')
);
#93=(
BOUNDED_CURVE()
B_SPLINE_CURVE(2,(#390,#391,#392),.UNSPECIFIED.,.F.,.U.)
B_SPLINE_CURVE_WITH_KNOTS((3,3),(0.00908261630903656,3.225525418091),
 .UNSPECIFIED.)
CURVE()
GEOMETRIC_REPRESENTATION_ITEM()
RATIONAL_B_SPLINE_CURVE((1.00087692463082,1.15571312372269,1.0008769246306))
REPRESENTATION_ITEM('')
);
#94=(
BOUNDED_CURVE()
B_SPLINE_CURVE(2,(#393,#394,#395),.UNSPECIFIED.,.F.,.U.)
B_SPLINE_CURVE_WITH_KNOTS((3,3),(0.00908261631096807,1.61706262736815),
 .UNSPECIFIED.)
CURVE()
GEOMETRIC_REPRESENTATION_ITEM()
RATIONAL_B_SPLINE_CURVE((1.00087692463101,1.07828340392231,1.07829502243273))
REPRESENTATION_ITEM('')
);
#95=CIRCLE('',#275,2.24999999999174);
#96=CIRCLE('',#276,2.24999999999174);
#97=CIRCLE('',#281,1.50000000000138);
#98=CIRCLE('',#282,1.2295);
#99=CIRCLE('',#284,1.2295);
#100=CIRCLE('',#285,1.2295);
#101=CIRCLE('',#287,1.5);
#102=CIRCLE('',#288,1.5);
#103=CIRCLE('',#291,2.25);
#104=VERTEX_POINT('',#301);
#105=VERTEX_POINT('',#302);
#106=VERTEX_POINT('',#304);
#107=VERTEX_POINT('',#309);
#108=VERTEX_POINT('',#313);
#109=VERTEX_POINT('',#317);
#110=VERTEX_POINT('',#321);
#111=VERTEX_POINT('',#325);
#112=VERTEX_POINT('',#329);
#113=VERTEX_POINT('',#335);
#114=VERTEX_POINT('',#339);
#115=VERTEX_POINT('',#343);
#116=VERTEX_POINT('',#347);
#117=VERTEX_POINT('',#351);
#118=VERTEX_POINT('',#357);
#119=VERTEX_POINT('',#358);
#120=VERTEX_POINT('',#363);
#121=VERTEX_POINT('',#365);
#122=VERTEX_POINT('',#369);
#123=VERTEX_POINT('',#371);
#124=VERTEX_POINT('',#376);
#125=VERTEX_POINT('',#382);
#126=VERTEX_POINT('',#389);
#127=B_SPLINE_CURVE_WITH_KNOTS('',3,(#297,#298,#299,#300),.UNSPECIFIED.,
 .F.,.U.,(4,4),(-0.414027212444201,-0.125352077761682),.UNSPECIFIED.);
#128=B_SPLINE_CURVE_WITH_KNOTS('',3,(#378,#379,#380,#381),.UNSPECIFIED.,
 .F.,.U.,(4,4),(0.192190570208485,0.480865704891004),.UNSPECIFIED.);
#129=EDGE_CURVE('',#104,#105,#127,.T.);
#130=EDGE_CURVE('',#106,#105,#95,.F.);
#131=EDGE_CURVE('',#105,#106,#96,.F.);
#132=EDGE_CURVE('',#104,#107,#81,.T.);
#133=EDGE_CURVE('',#107,#108,#82,.T.);
#134=EDGE_CURVE('',#108,#109,#83,.T.);
#135=EDGE_CURVE('',#109,#110,#84,.T.);
#136=EDGE_CURVE('',#110,#111,#85,.T.);
#137=EDGE_CURVE('',#111,#112,#86,.T.);
#138=EDGE_CURVE('',#112,#104,#87,.T.);
#139=EDGE_CURVE('',#110,#113,#64,.T.);
#140=EDGE_CURVE('',#114,#113,#88,.F.);
#141=EDGE_CURVE('',#111,#114,#65,.F.);
#142=EDGE_CURVE('',#108,#115,#66,.T.);
#143=EDGE_CURVE('',#116,#115,#89,.F.);
#144=EDGE_CURVE('',#109,#116,#67,.F.);
#145=EDGE_CURVE('',#107,#117,#68,.T.);
#146=EDGE_CURVE('',#115,#117,#90,.F.);
#147=EDGE_CURVE('',#118,#119,#69,.T.);
#148=EDGE_CURVE('',#118,#118,#97,.F.);
#149=EDGE_CURVE('',#119,#119,#98,.T.);
#150=EDGE_CURVE('',#120,#119,#70,.T.);
#151=EDGE_CURVE('',#121,#120,#99,.T.);
#152=EDGE_CURVE('',#120,#121,#100,.T.);
#153=EDGE_CURVE('',#122,#121,#71,.T.);
#154=EDGE_CURVE('',#123,#122,#101,.T.);
#155=EDGE_CURVE('',#122,#123,#102,.T.);
#156=EDGE_CURVE('',#124,#124,#103,.F.);
#157=EDGE_CURVE('',#125,#124,#128,.T.);
#158=EDGE_CURVE('',#125,#116,#91,.T.);
#159=EDGE_CURVE('',#117,#126,#92,.T.);
#160=EDGE_CURVE('',#126,#114,#93,.T.);
#161=EDGE_CURVE('',#113,#125,#94,.T.);
#162=EDGE_CURVE('',#112,#126,#72,.T.);
#163=ORIENTED_EDGE('',*,*,#129,.T.);
#164=ORIENTED_EDGE('',*,*,#130,.F.);
#165=ORIENTED_EDGE('',*,*,#131,.F.);
#166=ORIENTED_EDGE('',*,*,#129,.F.);
#167=ORIENTED_EDGE('',*,*,#132,.T.);
#168=ORIENTED_EDGE('',*,*,#133,.T.);
#169=ORIENTED_EDGE('',*,*,#134,.T.);
#170=ORIENTED_EDGE('',*,*,#135,.T.);
#171=ORIENTED_EDGE('',*,*,#136,.T.);
#172=ORIENTED_EDGE('',*,*,#137,.T.);
#173=ORIENTED_EDGE('',*,*,#138,.T.);
#174=ORIENTED_EDGE('',*,*,#139,.T.);
#175=ORIENTED_EDGE('',*,*,#140,.F.);
#176=ORIENTED_EDGE('',*,*,#141,.F.);
#177=ORIENTED_EDGE('',*,*,#136,.F.);
#178=ORIENTED_EDGE('',*,*,#142,.T.);
#179=ORIENTED_EDGE('',*,*,#143,.F.);
#180=ORIENTED_EDGE('',*,*,#144,.F.);
#181=ORIENTED_EDGE('',*,*,#134,.F.);
#182=ORIENTED_EDGE('',*,*,#145,.T.);
#183=ORIENTED_EDGE('',*,*,#146,.F.);
#184=ORIENTED_EDGE('',*,*,#142,.F.);
#185=ORIENTED_EDGE('',*,*,#133,.F.);
#186=ORIENTED_EDGE('',*,*,#147,.F.);
#187=ORIENTED_EDGE('',*,*,#148,.T.);
#188=ORIENTED_EDGE('',*,*,#147,.T.);
#189=ORIENTED_EDGE('',*,*,#149,.F.);
#190=ORIENTED_EDGE('',*,*,#150,.F.);
#191=ORIENTED_EDGE('',*,*,#151,.F.);
#192=ORIENTED_EDGE('',*,*,#152,.F.);
#193=ORIENTED_EDGE('',*,*,#150,.T.);
#194=ORIENTED_EDGE('',*,*,#149,.T.);
#195=ORIENTED_EDGE('',*,*,#153,.F.);
#196=ORIENTED_EDGE('',*,*,#154,.F.);
#197=ORIENTED_EDGE('',*,*,#155,.F.);
#198=ORIENTED_EDGE('',*,*,#153,.T.);
#199=ORIENTED_EDGE('',*,*,#151,.T.);
#200=ORIENTED_EDGE('',*,*,#152,.T.);
#201=ORIENTED_EDGE('',*,*,#148,.F.);
#202=ORIENTED_EDGE('',*,*,#130,.T.);
#203=ORIENTED_EDGE('',*,*,#131,.T.);
#204=ORIENTED_EDGE('',*,*,#156,.F.);
#205=ORIENTED_EDGE('',*,*,#154,.T.);
#206=ORIENTED_EDGE('',*,*,#155,.T.);
#207=ORIENTED_EDGE('',*,*,#157,.T.);
#208=ORIENTED_EDGE('',*,*,#156,.T.);
#209=ORIENTED_EDGE('',*,*,#157,.F.);
#210=ORIENTED_EDGE('',*,*,#158,.T.);
#211=ORIENTED_EDGE('',*,*,#143,.T.);
#212=ORIENTED_EDGE('',*,*,#146,.T.);
#213=ORIENTED_EDGE('',*,*,#159,.T.);
#214=ORIENTED_EDGE('',*,*,#160,.T.);
#215=ORIENTED_EDGE('',*,*,#140,.T.);
#216=ORIENTED_EDGE('',*,*,#161,.T.);
#217=ORIENTED_EDGE('',*,*,#162,.T.);
#218=ORIENTED_EDGE('',*,*,#159,.F.);
#219=ORIENTED_EDGE('',*,*,#145,.F.);
#220=ORIENTED_EDGE('',*,*,#132,.F.);
#221=ORIENTED_EDGE('',*,*,#138,.F.);
#222=ORIENTED_EDGE('',*,*,#141,.T.);
#223=ORIENTED_EDGE('',*,*,#160,.F.);
#224=ORIENTED_EDGE('',*,*,#162,.F.);
#225=ORIENTED_EDGE('',*,*,#137,.F.);
#226=ORIENTED_EDGE('',*,*,#144,.T.);
#227=ORIENTED_EDGE('',*,*,#158,.F.);
#228=ORIENTED_EDGE('',*,*,#161,.F.);
#229=ORIENTED_EDGE('',*,*,#139,.F.);
#230=ORIENTED_EDGE('',*,*,#135,.F.);
#231=EDGE_LOOP('',(#163,#164,#165,#166,#167,#168,#169,#170,#171,#172,#173));
#232=EDGE_LOOP('',(#174,#175,#176,#177));
#233=EDGE_LOOP('',(#178,#179,#180,#181));
#234=EDGE_LOOP('',(#182,#183,#184,#185));
#235=EDGE_LOOP('',(#186,#187,#188,#189));
#236=EDGE_LOOP('',(#190,#191,#192,#193,#194));
#237=EDGE_LOOP('',(#195,#196,#197,#198,#199,#200));
#238=EDGE_LOOP('',(#201));
#239=EDGE_LOOP('',(#202,#203));
#240=EDGE_LOOP('',(#204));
#241=EDGE_LOOP('',(#205,#206));
#242=EDGE_LOOP('',(#207,#208,#209,#210,#211,#212,#213,#214,#215,#216));
#243=EDGE_LOOP('',(#217,#218,#219,#220,#221));
#244=EDGE_LOOP('',(#222,#223,#224,#225));
#245=EDGE_LOOP('',(#226,#227,#228,#229,#230));
#246=FACE_BOUND('',#231,.T.);
#247=FACE_BOUND('',#232,.T.);
#248=FACE_BOUND('',#233,.T.);
#249=FACE_BOUND('',#234,.T.);
#250=FACE_BOUND('',#235,.T.);
#251=FACE_BOUND('',#236,.T.);
#252=FACE_BOUND('',#237,.T.);
#253=FACE_BOUND('',#238,.T.);
#254=FACE_BOUND('',#239,.T.);
#255=FACE_BOUND('',#240,.T.);
#256=FACE_BOUND('',#241,.T.);
#257=FACE_BOUND('',#242,.T.);
#258=FACE_BOUND('',#243,.T.);
#259=FACE_BOUND('',#244,.T.);
#260=FACE_BOUND('',#245,.T.);
#261=ADVANCED_FACE('',(#246),#445,.T.);
#262=ADVANCED_FACE('',(#247),#73,.F.);
#263=ADVANCED_FACE('',(#248),#74,.F.);
#264=ADVANCED_FACE('',(#249),#75,.F.);
#265=ADVANCED_FACE('',(#250),#446,.F.);
#266=ADVANCED_FACE('',(#251),#54,.F.);
#267=ADVANCED_FACE('',(#252),#447,.F.);
#268=ADVANCED_FACE('',(#253,#254),#76,.F.);
#269=ADVANCED_FACE('',(#255,#256),#77,.F.);
#270=ADVANCED_FACE('',(#257),#448,.T.);
#271=ADVANCED_FACE('',(#258),#78,.F.);
#272=ADVANCED_FACE('',(#259),#79,.F.);
#273=ADVANCED_FACE('',(#260),#80,.F.);
#274=AXIS2_PLACEMENT_3D('',#296,#400,#401);
#275=AXIS2_PLACEMENT_3D('',#303,#402,#403);
#276=AXIS2_PLACEMENT_3D('',#305,#404,#405);
#277=AXIS2_PLACEMENT_3D('',#333,#406,$);
#278=AXIS2_PLACEMENT_3D('',#341,#409,$);
#279=AXIS2_PLACEMENT_3D('',#349,#412,$);
#280=AXIS2_PLACEMENT_3D('',#355,#414,#415);
#281=AXIS2_PLACEMENT_3D('',#359,#417,#418);
#282=AXIS2_PLACEMENT_3D('',#360,#419,#420);
#283=AXIS2_PLACEMENT_3D('',#361,#421,#422);
#284=AXIS2_PLACEMENT_3D('',#364,#424,#425);
#285=AXIS2_PLACEMENT_3D('',#366,#426,#427);
#286=AXIS2_PLACEMENT_3D('',#367,#428,#429);
#287=AXIS2_PLACEMENT_3D('',#370,#431,#432);
#288=AXIS2_PLACEMENT_3D('',#372,#433,#434);
#289=AXIS2_PLACEMENT_3D('',#373,#435,$);
#290=AXIS2_PLACEMENT_3D('',#374,#436,$);
#291=AXIS2_PLACEMENT_3D('',#375,#437,#438);
#292=AXIS2_PLACEMENT_3D('',#377,#439,#440);
#293=AXIS2_PLACEMENT_3D('',#396,#441,$);
#294=AXIS2_PLACEMENT_3D('',#398,#443,$);
#295=AXIS2_PLACEMENT_3D('',#399,#444,$);
#296=CARTESIAN_POINT('',(1.79378221735089,0.,0.));
#297=CARTESIAN_POINT('',(2.11132485893819,0.000221201612397358,2.75000000230045));
#298=CARTESIAN_POINT('',(2.20754990700821,0.000147467741598298,2.58333333547285));
#299=CARTESIAN_POINT('',(2.3037749542611,7.37338707396126E-5,2.41666666817347));
#300=CARTESIAN_POINT('',(2.39999999999643,2.22044604924929E-16,2.24999999999794));
#301=CARTESIAN_POINT('',(2.11132485508688,0.000221201612218502,2.75000000007689));
#302=CARTESIAN_POINT('',(2.39999999999821,2.22044604925031E-16,2.24999999999897));
#303=CARTESIAN_POINT('',(2.4,0.,0.));
#304=CARTESIAN_POINT('',(2.39999999999821,-1.37772764904204E-16,-2.24999999999897));
#305=CARTESIAN_POINT('',(2.4,0.,0.));
#306=CARTESIAN_POINT('',(2.11132486026635,0.000221201608103926,2.75));
#307=CARTESIAN_POINT('',(2.11135908504173,-0.736741738879755,2.75));
#308=CARTESIAN_POINT('',(1.86570477234201,-1.58771324027405,2.75));
#309=CARTESIAN_POINT('',(1.86570477234276,-1.58771324027147,2.75));
#310=CARTESIAN_POINT('',(1.86570477234276,-1.58771324027147,2.75));
#311=CARTESIAN_POINT('',(2.32403810567277,-2.38156986040769,1.37499999999916));
#312=CARTESIAN_POINT('',(1.86570477234201,-3.17542648054423,-2.23307250059999E-12));
#313=CARTESIAN_POINT('',(1.86570477234276,-3.17542648054294,4.93096420519519E-16));
#314=CARTESIAN_POINT('',(1.86570477234276,-3.17542648054294,3.60506346109174E-16));
#315=CARTESIAN_POINT('',(2.32403810567277,-2.38156986040672,-1.37500000000084));
#316=CARTESIAN_POINT('',(1.86570477234201,-1.58771324027018,-2.75000000000223));
#317=CARTESIAN_POINT('',(1.86570477234276,-1.58771324027147,-2.75));
#318=CARTESIAN_POINT('',(1.86570477234276,-1.58771324027147,-2.75));
#319=CARTESIAN_POINT('',(2.32403810567277,9.66905375210381E-13,-2.75));
#320=CARTESIAN_POINT('',(1.86570477234201,1.58771324027405,-2.75));
#321=CARTESIAN_POINT('',(1.86570477234276,1.58771324027147,-2.75));
#322=CARTESIAN_POINT('',(1.86570477234276,1.58771324027147,-2.75));
#323=CARTESIAN_POINT('',(2.32403810567277,2.38156986040769,-1.37499999999916));
#324=CARTESIAN_POINT('',(1.86570477234201,3.17542648054423,2.23307250059999E-12));
#325=CARTESIAN_POINT('',(1.86570477234276,3.17542648054294,-4.93096420519519E-16));
#326=CARTESIAN_POINT('',(1.86570477234276,3.17542648054294,-3.60506346109174E-16));
#327=CARTESIAN_POINT('',(2.32403810567277,2.38156986040672,1.37500000000084));
#328=CARTESIAN_POINT('',(1.86570477234201,1.58771324027018,2.75000000000223));
#329=CARTESIAN_POINT('',(1.86570477234276,1.58771324027147,2.75));
#330=CARTESIAN_POINT('',(1.86570477234276,1.58771324027147,2.75));
#331=CARTESIAN_POINT('',(2.1112906450261,0.736978822047386,2.75));
#332=CARTESIAN_POINT('',(2.11132486026635,0.000221201608103926,2.75));
#333=CARTESIAN_POINT('',(3.4,1.58771324027147,-2.75));
#334=CARTESIAN_POINT('',(3.4,1.58771324027147,-2.75));
#335=CARTESIAN_POINT('',(0.534295227652477,1.58771324027147,-2.75));
#336=CARTESIAN_POINT('',(0.534295227652477,1.58771324027147,-2.75));
#337=CARTESIAN_POINT('',(0.0759618943224655,2.38156986040769,-1.37499999999916));
#338=CARTESIAN_POINT('',(0.534295227653221,3.17542648054423,2.23345553858963E-12));
#339=CARTESIAN_POINT('',(0.534295227652477,3.17542648054294,1.10058427778379E-16));
#340=CARTESIAN_POINT('',(3.4,3.17542648054294,2.22044604925031E-16));
#341=CARTESIAN_POINT('',(3.4,-3.17542648054294,0.));
#342=CARTESIAN_POINT('',(3.4,-3.17542648054294,1.11022302462516E-16));
#343=CARTESIAN_POINT('',(0.534295227652477,-3.17542648054294,3.72638771218134E-17));
#344=CARTESIAN_POINT('',(0.534295227652477,-3.17542648054294,1.68120747944925E-16));
#345=CARTESIAN_POINT('',(0.0759618943224658,-2.38156986040672,-1.37500000000084));
#346=CARTESIAN_POINT('',(0.534295227653221,-1.58771324027018,-2.75000000000223));
#347=CARTESIAN_POINT('',(0.534295227652477,-1.58771324027147,-2.75));
#348=CARTESIAN_POINT('',(3.4,-1.58771324027147,-2.75));
#349=CARTESIAN_POINT('',(3.4,-1.58771324027147,2.75));
#350=CARTESIAN_POINT('',(3.4,-1.58771324027147,2.75));
#351=CARTESIAN_POINT('',(0.534295227652477,-1.58771324027147,2.75));
#352=CARTESIAN_POINT('',(0.534295227652477,-1.58771324027147,2.75));
#353=CARTESIAN_POINT('',(0.0759618943224655,-2.38156986040769,1.37499999999916));
#354=CARTESIAN_POINT('',(0.534295227653221,-3.17542648054423,-2.23345553858963E-12));
#355=CARTESIAN_POINT('',(2.1295,0.,0.));
#356=CARTESIAN_POINT('',(2.37295,0.,-1.47295000000124));
#357=CARTESIAN_POINT('',(2.39999999999965,-1.83697019872103E-16,-1.50000000000069));
#358=CARTESIAN_POINT('',(2.1295,-1.50570323955167E-16,-1.2295));
#359=CARTESIAN_POINT('',(2.4,0.,0.));
#360=CARTESIAN_POINT('',(2.1295,0.,0.));
#361=CARTESIAN_POINT('',(2.4,0.,0.));
#362=CARTESIAN_POINT('',(4.44089209850063E-16,0.,-1.2295));
#363=CARTESIAN_POINT('',(0.270499999999655,1.08429597428957E-12,-1.22949999999965));
#364=CARTESIAN_POINT('',(0.270499999998619,0.,0.));
#365=CARTESIAN_POINT('',(0.270499999999655,0.,1.22949999999965));
#366=CARTESIAN_POINT('',(0.270499999998619,0.,0.));
#367=CARTESIAN_POINT('',(0.,0.,0.));
#368=CARTESIAN_POINT('',(0.29755,0.,1.20244999999848));
#369=CARTESIAN_POINT('',(-5.5511151231258E-17,9.18485099360515E-17,1.5));
#370=CARTESIAN_POINT('',(-1.11022302462516E-16,0.,0.));
#371=CARTESIAN_POINT('',(-5.5511151231258E-17,-9.18485099360515E-17,-1.5));
#372=CARTESIAN_POINT('',(-1.11022302462516E-16,0.,0.));
#373=CARTESIAN_POINT('',(2.4,3.3,0.));
#374=CARTESIAN_POINT('',(-1.11022302462516E-16,0.,0.));
#375=CARTESIAN_POINT('',(-1.11022302462516E-16,0.,0.));
#376=CARTESIAN_POINT('',(-1.38777878078145E-16,-2.75545529808154E-16,-2.25));
#377=CARTESIAN_POINT('',(0.,0.,0.));
#378=CARTESIAN_POINT('',(0.288675141058233,0.000221201612397663,-2.75000000230251));
#379=CARTESIAN_POINT('',(0.192450092988208,0.000147467741598337,-2.58333333547491));
#380=CARTESIAN_POINT('',(0.09622504573533,7.37338707393861E-5,-2.41666666817554));
#381=CARTESIAN_POINT('',(-8.67361737967958E-18,-2.75545529808154E-16,-2.25));
#382=CARTESIAN_POINT('',(0.288675144911334,0.000221201612218724,-2.75000000007792));
#383=CARTESIAN_POINT('',(0.288675139728879,0.000221201608104236,-2.75));
#384=CARTESIAN_POINT('',(0.288640914953504,-0.736741738879753,-2.75));
#385=CARTESIAN_POINT('',(0.534295227653221,-1.58771324027405,-2.75));
#386=CARTESIAN_POINT('',(0.534295227652477,-1.58771324027147,2.75));
#387=CARTESIAN_POINT('',(0.0759618943224663,9.66435265148391E-13,2.75));
#388=CARTESIAN_POINT('',(0.534295227653221,1.58771324027405,2.75));
#389=CARTESIAN_POINT('',(0.534295227652477,1.58771324027147,2.75));
#390=CARTESIAN_POINT('',(0.534295227652477,1.58771324027147,2.75));
#391=CARTESIAN_POINT('',(0.0759618943224656,2.38156986040769,1.37499999999916));
#392=CARTESIAN_POINT('',(0.534295227653222,3.17542648054423,-2.23442613259839E-12));
#393=CARTESIAN_POINT('',(0.534295227652477,1.58771324027147,-2.75));
#394=CARTESIAN_POINT('',(0.288709354969129,0.736978822047385,-2.75));
#395=CARTESIAN_POINT('',(0.288675139728879,0.000221201608104236,-2.75));
#396=CARTESIAN_POINT('',(3.4,1.58771324027147,2.75));
#397=CARTESIAN_POINT('',(3.4,1.58771324027147,2.75));
#398=CARTESIAN_POINT('',(3.4,3.17542648054294,0.));
#399=CARTESIAN_POINT('',(3.4,-1.58771324027147,-2.75));
#400=DIRECTION('',(-1.,0.,0.));
#401=DIRECTION('',(0.,0.,3.3));
#402=DIRECTION('',(-1.,0.,0.));
#403=DIRECTION('',(0.,0.,2.24999999999174));
#404=DIRECTION('',(-1.,0.,0.));
#405=DIRECTION('',(0.,0.,2.24999999999174));
#406=DIRECTION('',(0.,-0.866025403784439,0.5));
#407=DIRECTION('',(-1.,0.,0.));
#408=DIRECTION('',(1.,0.,0.));
#409=DIRECTION('',(0.,0.866025403784439,0.5));
#410=DIRECTION('',(-1.,0.,0.));
#411=DIRECTION('',(1.,0.,0.));
#412=DIRECTION('',(0.,0.866025403784439,-0.5));
#413=DIRECTION('',(-1.,0.,0.));
#414=DIRECTION('',(1.,0.,0.));
#415=DIRECTION('',(0.,0.,-1.2295));
#416=DIRECTION('',(-0.707106781184743,0.,0.707106781188352));
#417=DIRECTION('',(-1.,0.,0.));
#418=DIRECTION('',(0.,0.,-1.50000000000138));
#419=DIRECTION('',(1.,0.,0.));
#420=DIRECTION('',(0.,0.,-1.2295));
#421=DIRECTION('',(-1.,0.,0.));
#422=DIRECTION('',(0.,0.,-1.2295));
#423=DIRECTION('',(1.,0.,0.));
#424=DIRECTION('',(1.,0.,0.));
#425=DIRECTION('',(0.,0.,-1.2295));
#426=DIRECTION('',(1.,0.,0.));
#427=DIRECTION('',(0.,0.,-1.2295));
#428=DIRECTION('',(-1.,0.,0.));
#429=DIRECTION('',(0.,0.,1.5));
#430=DIRECTION('',(0.707106781184743,0.,-0.707106781188352));
#431=DIRECTION('',(1.,0.,0.));
#432=DIRECTION('',(0.,0.,1.5));
#433=DIRECTION('',(1.,0.,0.));
#434=DIRECTION('',(0.,0.,1.5));
#435=DIRECTION('',(-1.,0.,0.));
#436=DIRECTION('',(1.,0.,0.));
#437=DIRECTION('',(-1.,0.,0.));
#438=DIRECTION('',(0.,0.,-2.25));
#439=DIRECTION('',(1.,0.,0.));
#440=DIRECTION('',(0.,0.,-2.25));
#441=DIRECTION('',(0.,0.,-1.));
#442=DIRECTION('',(-1.,0.,0.));
#443=DIRECTION('',(0.,-0.866025403784439,-0.5));
#444=DIRECTION('',(0.,0.,1.));
#445=CONICAL_SURFACE('',#274,3.3,1.0471975512);
#446=CONICAL_SURFACE('',#280,1.2295,0.7853981634);
#447=CONICAL_SURFACE('',#286,1.5,0.7853981634);
#448=CONICAL_SURFACE('',#292,2.25,1.0471975512);
#449=CLOSED_SHELL('',(#261,#262,#263,#264,#265,#266,#267,#268,#269,#270,
#271,#272,#273));
#450=MANIFOLD_SOLID_BREP('',#449);
#451=ADVANCED_BREP_SHAPE_REPRESENTATION('',(#450),#53);
ENDSEC;
END-ISO-10303-21;
