ISO-10303-21;
HEADER;
/* Generated by software containing ST-Developer
 * from STEP Tools, Inc. (www.steptools.com) 
 */

FILE_DESCRIPTION(
/* description */ ('Alibre Inc.'),
/* implementation_level */ '2;1');

FILE_NAME(
/* name */ 'export-559E133B-AE1B-4E52-9C5A-9A26B3C95297',
/* time_stamp */ '2021-04-17T11:56:04+02:00',
/* author */ (''),
/* organization */ (''),
/* preprocessor_version */ 'ST-DEVELOPER v17',
/* originating_system */ 'Alibre',
/* authorisation */ '');

FILE_SCHEMA (('AUTOMOTIVE_DESIGN'));
ENDSEC;

DATA;
#10=STYLED_ITEM('NAME_0',(#47),#769);
#11=STYLED_ITEM('NAME_0',(#48),#452);
#12=STYLED_ITEM('NAME_0',(#48),#453);
#13=STYLED_ITEM('NAME_0',(#48),#454);
#14=STYLED_ITEM('NAME_0',(#48),#455);
#15=STYLED_ITEM('NAME_0',(#48),#456);
#16=STYLED_ITEM('NAME_0',(#48),#457);
#17=STYLED_ITEM('NAME_0',(#48),#458);
#18=STYLED_ITEM('NAME_0',(#48),#459);
#19=STYLED_ITEM('NAME_0',(#48),#460);
#20=STYLED_ITEM('NAME_0',(#48),#461);
#21=STYLED_ITEM('NAME_0',(#48),#462);
#22=STYLED_ITEM('NAME_0',(#48),#463);
#23=STYLED_ITEM('NAME_0',(#48),#464);
#24=STYLED_ITEM('NAME_0',(#48),#465);
#25=STYLED_ITEM('NAME_0',(#48),#466);
#26=STYLED_ITEM('NAME_0',(#48),#467);
#27=STYLED_ITEM('NAME_0',(#48),#468);
#28=STYLED_ITEM('NAME_0',(#48),#469);
#29=STYLED_ITEM('NAME_0',(#48),#470);
#30=STYLED_ITEM('NAME_0',(#48),#471);
#31=STYLED_ITEM('NAME_0',(#48),#472);
#32=STYLED_ITEM('NAME_0',(#48),#473);
#33=STYLED_ITEM('NAME_0',(#48),#474);
#34=MECHANICAL_DESIGN_GEOMETRIC_PRESENTATION_REPRESENTATION('NAME_0',(#10,
#11,#12,#13,#14,#15,#16,#17,#18,#19,#20,#21,#22,#23,#24,#25,#26,#27,#28,
#29,#30,#31,#32,#33),#63);
#35=COLOUR_RGB('',0.882352941176471,0.882352941176471,0.882352941176471);
#36=COLOUR_RGB('',0.686274509803922,0.686274509803922,0.686274509803922);
#37=FILL_AREA_STYLE_COLOUR('NAME_0',#35);
#38=FILL_AREA_STYLE_COLOUR('NAME_0',#36);
#39=FILL_AREA_STYLE('NAME_0',(#37));
#40=FILL_AREA_STYLE('NAME_0',(#38));
#41=SURFACE_STYLE_FILL_AREA(#39);
#42=SURFACE_STYLE_FILL_AREA(#40);
#43=SURFACE_SIDE_STYLE('NAME_0',(#41));
#44=SURFACE_SIDE_STYLE('NAME_0',(#42));
#45=SURFACE_STYLE_USAGE(.POSITIVE.,#43);
#46=SURFACE_STYLE_USAGE(.POSITIVE.,#44);
#47=PRESENTATION_STYLE_ASSIGNMENT((#45));
#48=PRESENTATION_STYLE_ASSIGNMENT((#46));
#49=PRODUCT_DEFINITION_CONTEXT('part definition',#56,'design');
#50=SHAPE_DEFINITION_REPRESENTATION(#51,#770);
#51=PRODUCT_DEFINITION_SHAPE('PRODUCT_VERSION_ID',
'PRODUCT_VERSION_DESCR',#52);
#52=PRODUCT_DEFINITION('PRODUCT_VERSION_ID','PRODUCT_VERSION_DESCR',#53,
#49);
#53=PRODUCT_DEFINITION_FORMATION_WITH_SPECIFIED_SOURCE(
'PRODUCT_VERSION_ID','PRODUCT_VERSION_DESCR',#58,.MADE.);
#54=PRODUCT_RELATED_PRODUCT_CATEGORY('part','part',(#58));
#55=APPLICATION_PROTOCOL_DEFINITION('Draft International Standard',
'automotive_design',1994,#56);
#56=APPLICATION_CONTEXT('automotive_Design');
#57=PRODUCT_CONTEXT('3D Mechanical Parts',#56,'mechanical');
#58=PRODUCT('_W0950200005-14',
'5559 W0950200005 COUNTER-HINGE - MODEL BC for 20&25\X\D8 BORE ISO6432',
'',(#57));
#59=(
LENGTH_UNIT()
NAMED_UNIT(*)
SI_UNIT(.MILLI.,.METRE.)
);
#60=(
NAMED_UNIT(*)
PLANE_ANGLE_UNIT()
SI_UNIT($,.RADIAN.)
);
#61=(
NAMED_UNIT(*)
SI_UNIT($,.STERADIAN.)
SOLID_ANGLE_UNIT()
);
#62=UNCERTAINTY_MEASURE_WITH_UNIT(LENGTH_MEASURE(1.E-6),#59,
'DISTANCE_ACCURACY_VALUE',
'Maximum model space distance between geometric entities at asserted c
onnectivities');
#63=(
GEOMETRIC_REPRESENTATION_CONTEXT(3)
GLOBAL_UNCERTAINTY_ASSIGNED_CONTEXT((#62))
GLOBAL_UNIT_ASSIGNED_CONTEXT((#61,#60,#59))
REPRESENTATION_CONTEXT('ID1','3D')
);
#64=ELLIPSE('',#480,1.6315069557,1.5);
#65=ELLIPSE('',#483,1.6315069557,1.5);
#66=CYLINDRICAL_SURFACE('',#478,1.5);
#67=CYLINDRICAL_SURFACE('',#481,1.5);
#68=CYLINDRICAL_SURFACE('',#484,10.);
#69=CYLINDRICAL_SURFACE('',#490,10.);
#70=CYLINDRICAL_SURFACE('',#505,4.);
#71=CYLINDRICAL_SURFACE('',#508,4.);
#72=CYLINDRICAL_SURFACE('',#510,4.);
#73=CYLINDRICAL_SURFACE('',#515,3.25);
#74=CYLINDRICAL_SURFACE('',#517,4.);
#75=CYLINDRICAL_SURFACE('',#518,3.25);
#76=CYLINDRICAL_SURFACE('',#520,4.);
#77=VECTOR('',#527,1.);
#78=VECTOR('',#528,1.);
#79=VECTOR('',#529,1.);
#80=VECTOR('',#530,1.);
#81=VECTOR('',#537,1.);
#82=VECTOR('',#542,1.);
#83=VECTOR('',#547,1.);
#84=VECTOR('',#550,1.);
#85=VECTOR('',#554,1.);
#86=VECTOR('',#555,1.);
#87=VECTOR('',#556,1.);
#88=VECTOR('',#557,1.);
#89=VECTOR('',#560,1.);
#90=VECTOR('',#563,1.);
#91=VECTOR('',#568,1.);
#92=VECTOR('',#572,1.);
#93=VECTOR('',#573,1.);
#94=VECTOR('',#574,1.);
#95=VECTOR('',#580,1.);
#96=VECTOR('',#584,1.);
#97=VECTOR('',#585,1.);
#98=VECTOR('',#587,1.);
#99=VECTOR('',#590,1.);
#100=VECTOR('',#598,1.);
#101=VECTOR('',#599,1.);
#102=VECTOR('',#602,1.);
#103=VECTOR('',#608,1.);
#104=VECTOR('',#613,1.);
#105=VECTOR('',#623,1.);
#106=VECTOR('',#625,1.);
#107=VECTOR('',#630,1.);
#108=LINE('',#642,#77);
#109=LINE('',#645,#78);
#110=LINE('',#647,#79);
#111=LINE('',#649,#80);
#112=LINE('',#655,#81);
#113=LINE('',#659,#82);
#114=LINE('',#663,#83);
#115=LINE('',#668,#84);
#116=LINE('',#672,#85);
#117=LINE('',#673,#86);
#118=LINE('',#675,#87);
#119=LINE('',#677,#88);
#120=LINE('',#681,#89);
#121=LINE('',#685,#90);
#122=LINE('',#689,#91);
#123=LINE('',#693,#92);
#124=LINE('',#695,#93);
#125=LINE('',#696,#94);
#126=LINE('',#702,#95);
#127=LINE('',#707,#96);
#128=LINE('',#709,#97);
#129=LINE('',#711,#98);
#130=LINE('',#715,#99);
#131=LINE('',#724,#100);
#132=LINE('',#725,#101);
#133=LINE('',#727,#102);
#134=LINE('',#733,#103);
#135=LINE('',#738,#104);
#136=LINE('',#747,#105);
#137=LINE('',#749,#106);
#138=LINE('',#752,#107);
#139=VERTEX_POINT('',#637);
#140=VERTEX_POINT('',#638);
#141=VERTEX_POINT('',#640);
#142=VERTEX_POINT('',#641);
#143=VERTEX_POINT('',#643);
#144=VERTEX_POINT('',#644);
#145=VERTEX_POINT('',#646);
#146=VERTEX_POINT('',#648);
#147=VERTEX_POINT('',#652);
#148=VERTEX_POINT('',#654);
#149=VERTEX_POINT('',#658);
#150=VERTEX_POINT('',#660);
#151=VERTEX_POINT('',#664);
#152=VERTEX_POINT('',#665);
#153=VERTEX_POINT('',#667);
#154=VERTEX_POINT('',#669);
#155=VERTEX_POINT('',#674);
#156=VERTEX_POINT('',#676);
#157=VERTEX_POINT('',#678);
#158=VERTEX_POINT('',#680);
#159=VERTEX_POINT('',#682);
#160=VERTEX_POINT('',#684);
#161=VERTEX_POINT('',#688);
#162=VERTEX_POINT('',#690);
#163=VERTEX_POINT('',#694);
#164=VERTEX_POINT('',#699);
#165=VERTEX_POINT('',#700);
#166=VERTEX_POINT('',#705);
#167=VERTEX_POINT('',#706);
#168=VERTEX_POINT('',#708);
#169=VERTEX_POINT('',#712);
#170=VERTEX_POINT('',#713);
#171=VERTEX_POINT('',#719);
#172=VERTEX_POINT('',#720);
#173=VERTEX_POINT('',#722);
#174=VERTEX_POINT('',#723);
#175=VERTEX_POINT('',#728);
#176=VERTEX_POINT('',#730);
#177=VERTEX_POINT('',#734);
#178=VERTEX_POINT('',#736);
#179=VERTEX_POINT('',#739);
#180=VERTEX_POINT('',#740);
#181=VERTEX_POINT('',#743);
#182=CIRCLE('',#476,3.25);
#183=CIRCLE('',#477,3.25);
#184=CIRCLE('',#479,1.5);
#185=CIRCLE('',#482,1.5);
#186=CIRCLE('',#485,10.);
#187=CIRCLE('',#486,10.);
#188=CIRCLE('',#488,4.);
#189=CIRCLE('',#489,4.);
#190=CIRCLE('',#491,10.);
#191=CIRCLE('',#492,10.);
#192=CIRCLE('',#495,4.);
#193=CIRCLE('',#496,4.);
#194=CIRCLE('',#498,4.);
#195=CIRCLE('',#500,4.);
#196=CIRCLE('',#501,4.);
#197=CIRCLE('',#503,3.25);
#198=CIRCLE('',#504,3.25);
#199=CIRCLE('',#506,4.);
#200=CIRCLE('',#509,4.);
#201=CIRCLE('',#511,4.);
#202=CIRCLE('',#512,4.);
#203=CIRCLE('',#513,4.);
#204=EDGE_CURVE('',#139,#140,#182,.T.);
#205=EDGE_CURVE('',#140,#139,#182,.T.);
#206=EDGE_CURVE('',#141,#142,#183,.T.);
#207=EDGE_CURVE('',#142,#141,#183,.T.);
#208=EDGE_CURVE('',#143,#144,#108,.T.);
#209=EDGE_CURVE('',#143,#145,#109,.T.);
#210=EDGE_CURVE('',#145,#146,#110,.T.);
#211=EDGE_CURVE('',#144,#146,#111,.T.);
#212=EDGE_CURVE('',#147,#146,#184,.T.);
#213=EDGE_CURVE('',#145,#148,#64,.T.);
#214=EDGE_CURVE('',#148,#147,#112,.T.);
#215=EDGE_CURVE('',#144,#149,#185,.T.);
#216=EDGE_CURVE('',#150,#149,#113,.T.);
#217=EDGE_CURVE('',#150,#143,#65,.T.);
#218=EDGE_CURVE('',#151,#152,#114,.T.);
#219=EDGE_CURVE('',#153,#151,#186,.T.);
#220=EDGE_CURVE('',#153,#154,#115,.T.);
#221=EDGE_CURVE('',#154,#152,#187,.T.);
#222=EDGE_CURVE('',#152,#149,#116,.T.);
#223=EDGE_CURVE('',#147,#155,#117,.T.);
#224=EDGE_CURVE('',#155,#156,#118,.T.);
#225=EDGE_CURVE('',#156,#157,#119,.T.);
#226=EDGE_CURVE('',#157,#158,#188,.T.);
#227=EDGE_CURVE('',#159,#158,#120,.T.);
#228=EDGE_CURVE('',#159,#160,#189,.T.);
#229=EDGE_CURVE('',#151,#160,#121,.T.);
#230=EDGE_CURVE('',#155,#161,#190,.T.);
#231=EDGE_CURVE('',#161,#162,#122,.T.);
#232=EDGE_CURVE('',#162,#156,#191,.T.);
#233=EDGE_CURVE('',#145,#163,#123,.T.);
#234=EDGE_CURVE('',#163,#162,#124,.T.);
#235=EDGE_CURVE('',#161,#148,#125,.T.);
#236=EDGE_CURVE('',#164,#165,#192,.T.);
#237=EDGE_CURVE('',#165,#164,#193,.T.);
#238=EDGE_CURVE('',#157,#163,#126,.T.);
#239=EDGE_CURVE('',#166,#167,#194,.T.);
#240=EDGE_CURVE('',#167,#166,#194,.T.);
#241=EDGE_CURVE('',#160,#168,#127,.T.);
#242=EDGE_CURVE('',#168,#153,#128,.T.);
#243=EDGE_CURVE('',#169,#170,#129,.T.);
#244=EDGE_CURVE('',#170,#163,#195,.T.);
#245=EDGE_CURVE('',#168,#143,#130,.T.);
#246=EDGE_CURVE('',#168,#169,#196,.T.);
#247=EDGE_CURVE('',#171,#172,#197,.T.);
#248=EDGE_CURVE('',#172,#171,#197,.T.);
#249=EDGE_CURVE('',#173,#174,#198,.T.);
#250=EDGE_CURVE('',#174,#173,#198,.T.);
#251=EDGE_CURVE('',#170,#158,#131,.T.);
#252=EDGE_CURVE('',#169,#159,#132,.T.);
#253=EDGE_CURVE('',#175,#166,#133,.T.);
#254=EDGE_CURVE('',#176,#175,#199,.T.);
#255=EDGE_CURVE('',#175,#176,#199,.T.);
#256=EDGE_CURVE('',#164,#177,#134,.T.);
#257=EDGE_CURVE('',#177,#178,#200,.T.);
#258=EDGE_CURVE('',#178,#177,#200,.T.);
#259=EDGE_CURVE('',#179,#180,#135,.T.);
#260=EDGE_CURVE('',#180,#180,#201,.T.);
#261=EDGE_CURVE('',#179,#181,#202,.T.);
#262=EDGE_CURVE('',#181,#179,#203,.T.);
#263=EDGE_CURVE('',#172,#140,#136,.T.);
#264=EDGE_CURVE('',#150,#154,#137,.T.);
#265=EDGE_CURVE('',#174,#142,#138,.T.);
#266=ORIENTED_EDGE('',*,*,#204,.T.);
#267=ORIENTED_EDGE('',*,*,#205,.T.);
#268=ORIENTED_EDGE('',*,*,#206,.T.);
#269=ORIENTED_EDGE('',*,*,#207,.T.);
#270=ORIENTED_EDGE('',*,*,#208,.F.);
#271=ORIENTED_EDGE('',*,*,#209,.T.);
#272=ORIENTED_EDGE('',*,*,#210,.T.);
#273=ORIENTED_EDGE('',*,*,#211,.F.);
#274=ORIENTED_EDGE('',*,*,#212,.T.);
#275=ORIENTED_EDGE('',*,*,#210,.F.);
#276=ORIENTED_EDGE('',*,*,#213,.T.);
#277=ORIENTED_EDGE('',*,*,#214,.T.);
#278=ORIENTED_EDGE('',*,*,#215,.T.);
#279=ORIENTED_EDGE('',*,*,#216,.F.);
#280=ORIENTED_EDGE('',*,*,#217,.T.);
#281=ORIENTED_EDGE('',*,*,#208,.T.);
#282=ORIENTED_EDGE('',*,*,#218,.F.);
#283=ORIENTED_EDGE('',*,*,#219,.F.);
#284=ORIENTED_EDGE('',*,*,#220,.T.);
#285=ORIENTED_EDGE('',*,*,#221,.T.);
#286=ORIENTED_EDGE('',*,*,#218,.T.);
#287=ORIENTED_EDGE('',*,*,#222,.T.);
#288=ORIENTED_EDGE('',*,*,#215,.F.);
#289=ORIENTED_EDGE('',*,*,#211,.T.);
#290=ORIENTED_EDGE('',*,*,#212,.F.);
#291=ORIENTED_EDGE('',*,*,#223,.T.);
#292=ORIENTED_EDGE('',*,*,#224,.T.);
#293=ORIENTED_EDGE('',*,*,#225,.T.);
#294=ORIENTED_EDGE('',*,*,#226,.T.);
#295=ORIENTED_EDGE('',*,*,#227,.F.);
#296=ORIENTED_EDGE('',*,*,#228,.T.);
#297=ORIENTED_EDGE('',*,*,#229,.F.);
#298=ORIENTED_EDGE('',*,*,#224,.F.);
#299=ORIENTED_EDGE('',*,*,#230,.T.);
#300=ORIENTED_EDGE('',*,*,#231,.T.);
#301=ORIENTED_EDGE('',*,*,#232,.T.);
#302=ORIENTED_EDGE('',*,*,#213,.F.);
#303=ORIENTED_EDGE('',*,*,#233,.T.);
#304=ORIENTED_EDGE('',*,*,#234,.T.);
#305=ORIENTED_EDGE('',*,*,#231,.F.);
#306=ORIENTED_EDGE('',*,*,#235,.T.);
#307=ORIENTED_EDGE('',*,*,#236,.F.);
#308=ORIENTED_EDGE('',*,*,#237,.F.);
#309=ORIENTED_EDGE('',*,*,#238,.F.);
#310=ORIENTED_EDGE('',*,*,#225,.F.);
#311=ORIENTED_EDGE('',*,*,#232,.F.);
#312=ORIENTED_EDGE('',*,*,#234,.F.);
#313=ORIENTED_EDGE('',*,*,#239,.F.);
#314=ORIENTED_EDGE('',*,*,#240,.F.);
#315=ORIENTED_EDGE('',*,*,#229,.T.);
#316=ORIENTED_EDGE('',*,*,#241,.T.);
#317=ORIENTED_EDGE('',*,*,#242,.T.);
#318=ORIENTED_EDGE('',*,*,#219,.T.);
#319=ORIENTED_EDGE('',*,*,#243,.T.);
#320=ORIENTED_EDGE('',*,*,#244,.T.);
#321=ORIENTED_EDGE('',*,*,#233,.F.);
#322=ORIENTED_EDGE('',*,*,#209,.F.);
#323=ORIENTED_EDGE('',*,*,#245,.F.);
#324=ORIENTED_EDGE('',*,*,#246,.T.);
#325=ORIENTED_EDGE('',*,*,#247,.T.);
#326=ORIENTED_EDGE('',*,*,#248,.T.);
#327=ORIENTED_EDGE('',*,*,#249,.T.);
#328=ORIENTED_EDGE('',*,*,#250,.T.);
#329=ORIENTED_EDGE('',*,*,#227,.T.);
#330=ORIENTED_EDGE('',*,*,#251,.F.);
#331=ORIENTED_EDGE('',*,*,#243,.F.);
#332=ORIENTED_EDGE('',*,*,#252,.T.);
#333=ORIENTED_EDGE('',*,*,#253,.T.);
#334=ORIENTED_EDGE('',*,*,#239,.T.);
#335=ORIENTED_EDGE('',*,*,#240,.T.);
#336=ORIENTED_EDGE('',*,*,#253,.F.);
#337=ORIENTED_EDGE('',*,*,#254,.F.);
#338=ORIENTED_EDGE('',*,*,#255,.F.);
#339=ORIENTED_EDGE('',*,*,#254,.T.);
#340=ORIENTED_EDGE('',*,*,#255,.T.);
#341=ORIENTED_EDGE('',*,*,#256,.T.);
#342=ORIENTED_EDGE('',*,*,#257,.T.);
#343=ORIENTED_EDGE('',*,*,#258,.T.);
#344=ORIENTED_EDGE('',*,*,#256,.F.);
#345=ORIENTED_EDGE('',*,*,#236,.T.);
#346=ORIENTED_EDGE('',*,*,#237,.T.);
#347=ORIENTED_EDGE('',*,*,#259,.T.);
#348=ORIENTED_EDGE('',*,*,#260,.T.);
#349=ORIENTED_EDGE('',*,*,#259,.F.);
#350=ORIENTED_EDGE('',*,*,#261,.T.);
#351=ORIENTED_EDGE('',*,*,#262,.T.);
#352=ORIENTED_EDGE('',*,*,#257,.F.);
#353=ORIENTED_EDGE('',*,*,#258,.F.);
#354=ORIENTED_EDGE('',*,*,#263,.F.);
#355=ORIENTED_EDGE('',*,*,#247,.F.);
#356=ORIENTED_EDGE('',*,*,#248,.F.);
#357=ORIENTED_EDGE('',*,*,#263,.T.);
#358=ORIENTED_EDGE('',*,*,#204,.F.);
#359=ORIENTED_EDGE('',*,*,#205,.F.);
#360=ORIENTED_EDGE('',*,*,#261,.F.);
#361=ORIENTED_EDGE('',*,*,#262,.F.);
#362=ORIENTED_EDGE('',*,*,#221,.F.);
#363=ORIENTED_EDGE('',*,*,#264,.F.);
#364=ORIENTED_EDGE('',*,*,#216,.T.);
#365=ORIENTED_EDGE('',*,*,#222,.F.);
#366=ORIENTED_EDGE('',*,*,#252,.F.);
#367=ORIENTED_EDGE('',*,*,#246,.F.);
#368=ORIENTED_EDGE('',*,*,#241,.F.);
#369=ORIENTED_EDGE('',*,*,#228,.F.);
#370=ORIENTED_EDGE('',*,*,#265,.F.);
#371=ORIENTED_EDGE('',*,*,#249,.F.);
#372=ORIENTED_EDGE('',*,*,#250,.F.);
#373=ORIENTED_EDGE('',*,*,#265,.T.);
#374=ORIENTED_EDGE('',*,*,#206,.F.);
#375=ORIENTED_EDGE('',*,*,#207,.F.);
#376=ORIENTED_EDGE('',*,*,#260,.F.);
#377=ORIENTED_EDGE('',*,*,#214,.F.);
#378=ORIENTED_EDGE('',*,*,#235,.F.);
#379=ORIENTED_EDGE('',*,*,#230,.F.);
#380=ORIENTED_EDGE('',*,*,#223,.F.);
#381=ORIENTED_EDGE('',*,*,#238,.T.);
#382=ORIENTED_EDGE('',*,*,#244,.F.);
#383=ORIENTED_EDGE('',*,*,#251,.T.);
#384=ORIENTED_EDGE('',*,*,#226,.F.);
#385=ORIENTED_EDGE('',*,*,#217,.F.);
#386=ORIENTED_EDGE('',*,*,#264,.T.);
#387=ORIENTED_EDGE('',*,*,#220,.F.);
#388=ORIENTED_EDGE('',*,*,#242,.F.);
#389=ORIENTED_EDGE('',*,*,#245,.T.);
#390=EDGE_LOOP('',(#266,#267));
#391=EDGE_LOOP('',(#268,#269));
#392=EDGE_LOOP('',(#270,#271,#272,#273));
#393=EDGE_LOOP('',(#274,#275,#276,#277));
#394=EDGE_LOOP('',(#278,#279,#280,#281));
#395=EDGE_LOOP('',(#282,#283,#284,#285));
#396=EDGE_LOOP('',(#286,#287,#288,#289,#290,#291,#292,#293,#294,#295,#296,
#297));
#397=EDGE_LOOP('',(#298,#299,#300,#301));
#398=EDGE_LOOP('',(#302,#303,#304,#305,#306));
#399=EDGE_LOOP('',(#307,#308));
#400=EDGE_LOOP('',(#309,#310,#311,#312));
#401=EDGE_LOOP('',(#313,#314));
#402=EDGE_LOOP('',(#315,#316,#317,#318));
#403=EDGE_LOOP('',(#319,#320,#321,#322,#323,#324));
#404=EDGE_LOOP('',(#325,#326));
#405=EDGE_LOOP('',(#327,#328));
#406=EDGE_LOOP('',(#329,#330,#331,#332));
#407=EDGE_LOOP('',(#333,#334,#335,#336,#337,#338));
#408=EDGE_LOOP('',(#339,#340));
#409=EDGE_LOOP('',(#341,#342,#343,#344,#345,#346));
#410=EDGE_LOOP('',(#347,#348,#349,#350,#351));
#411=EDGE_LOOP('',(#352,#353));
#412=EDGE_LOOP('',(#354,#355,#356,#357,#358,#359));
#413=EDGE_LOOP('',(#360,#361));
#414=EDGE_LOOP('',(#362,#363,#364,#365));
#415=EDGE_LOOP('',(#366,#367,#368,#369));
#416=EDGE_LOOP('',(#370,#371,#372,#373,#374,#375));
#417=EDGE_LOOP('',(#376));
#418=EDGE_LOOP('',(#377,#378,#379,#380));
#419=EDGE_LOOP('',(#381,#382,#383,#384));
#420=EDGE_LOOP('',(#385,#386,#387,#388,#389));
#421=FACE_BOUND('',#390,.T.);
#422=FACE_BOUND('',#391,.T.);
#423=FACE_BOUND('',#392,.T.);
#424=FACE_BOUND('',#393,.T.);
#425=FACE_BOUND('',#394,.T.);
#426=FACE_BOUND('',#395,.T.);
#427=FACE_BOUND('',#396,.T.);
#428=FACE_BOUND('',#397,.T.);
#429=FACE_BOUND('',#398,.T.);
#430=FACE_BOUND('',#399,.T.);
#431=FACE_BOUND('',#400,.T.);
#432=FACE_BOUND('',#401,.T.);
#433=FACE_BOUND('',#402,.T.);
#434=FACE_BOUND('',#403,.T.);
#435=FACE_BOUND('',#404,.T.);
#436=FACE_BOUND('',#405,.T.);
#437=FACE_BOUND('',#406,.T.);
#438=FACE_BOUND('',#407,.T.);
#439=FACE_BOUND('',#408,.T.);
#440=FACE_BOUND('',#409,.T.);
#441=FACE_BOUND('',#410,.T.);
#442=FACE_BOUND('',#411,.T.);
#443=FACE_BOUND('',#412,.T.);
#444=FACE_BOUND('',#413,.T.);
#445=FACE_BOUND('',#414,.T.);
#446=FACE_BOUND('',#415,.T.);
#447=FACE_BOUND('',#416,.T.);
#448=FACE_BOUND('',#417,.T.);
#449=FACE_BOUND('',#418,.T.);
#450=FACE_BOUND('',#419,.T.);
#451=FACE_BOUND('',#420,.T.);
#452=ADVANCED_FACE('',(#421,#422,#423),#756,.F.);
#453=ADVANCED_FACE('',(#424),#66,.F.);
#454=ADVANCED_FACE('',(#425),#67,.F.);
#455=ADVANCED_FACE('',(#426),#68,.T.);
#456=ADVANCED_FACE('',(#427),#757,.F.);
#457=ADVANCED_FACE('',(#428),#69,.T.);
#458=ADVANCED_FACE('',(#429),#758,.F.);
#459=ADVANCED_FACE('',(#430,#431),#759,.F.);
#460=ADVANCED_FACE('',(#432,#433),#760,.T.);
#461=ADVANCED_FACE('',(#434),#761,.F.);
#462=ADVANCED_FACE('',(#435,#436,#437),#762,.F.);
#463=ADVANCED_FACE('',(#438),#70,.T.);
#464=ADVANCED_FACE('',(#439),#763,.T.);
#465=ADVANCED_FACE('',(#440),#71,.T.);
#466=ADVANCED_FACE('',(#441),#72,.T.);
#467=ADVANCED_FACE('',(#442),#764,.F.);
#468=ADVANCED_FACE('',(#443),#73,.F.);
#469=ADVANCED_FACE('',(#444,#445),#765,.F.);
#470=ADVANCED_FACE('',(#446),#74,.T.);
#471=ADVANCED_FACE('',(#447),#75,.F.);
#472=ADVANCED_FACE('',(#448,#449),#766,.F.);
#473=ADVANCED_FACE('',(#450),#76,.T.);
#474=ADVANCED_FACE('',(#451),#767,.F.);
#475=AXIS2_PLACEMENT_3D('',#635,#522,$);
#476=AXIS2_PLACEMENT_3D('',#636,#523,#524);
#477=AXIS2_PLACEMENT_3D('',#639,#525,#526);
#478=AXIS2_PLACEMENT_3D('',#650,#531,#532);
#479=AXIS2_PLACEMENT_3D('',#651,#533,#534);
#480=AXIS2_PLACEMENT_3D('',#653,#535,#536);
#481=AXIS2_PLACEMENT_3D('',#656,#538,#539);
#482=AXIS2_PLACEMENT_3D('',#657,#540,#541);
#483=AXIS2_PLACEMENT_3D('',#661,#543,#544);
#484=AXIS2_PLACEMENT_3D('',#662,#545,#546);
#485=AXIS2_PLACEMENT_3D('',#666,#548,#549);
#486=AXIS2_PLACEMENT_3D('',#670,#551,#552);
#487=AXIS2_PLACEMENT_3D('',#671,#553,$);
#488=AXIS2_PLACEMENT_3D('',#679,#558,#559);
#489=AXIS2_PLACEMENT_3D('',#683,#561,#562);
#490=AXIS2_PLACEMENT_3D('',#686,#564,#565);
#491=AXIS2_PLACEMENT_3D('',#687,#566,#567);
#492=AXIS2_PLACEMENT_3D('',#691,#569,#570);
#493=AXIS2_PLACEMENT_3D('',#692,#571,$);
#494=AXIS2_PLACEMENT_3D('',#697,#575,$);
#495=AXIS2_PLACEMENT_3D('',#698,#576,#577);
#496=AXIS2_PLACEMENT_3D('',#701,#578,#579);
#497=AXIS2_PLACEMENT_3D('',#703,#581,$);
#498=AXIS2_PLACEMENT_3D('',#704,#582,#583);
#499=AXIS2_PLACEMENT_3D('',#710,#586,$);
#500=AXIS2_PLACEMENT_3D('',#714,#588,#589);
#501=AXIS2_PLACEMENT_3D('',#716,#591,#592);
#502=AXIS2_PLACEMENT_3D('',#717,#593,$);
#503=AXIS2_PLACEMENT_3D('',#718,#594,#595);
#504=AXIS2_PLACEMENT_3D('',#721,#596,#597);
#505=AXIS2_PLACEMENT_3D('',#726,#600,#601);
#506=AXIS2_PLACEMENT_3D('',#729,#603,#604);
#507=AXIS2_PLACEMENT_3D('',#731,#605,$);
#508=AXIS2_PLACEMENT_3D('',#732,#606,#607);
#509=AXIS2_PLACEMENT_3D('',#735,#609,#610);
#510=AXIS2_PLACEMENT_3D('',#737,#611,#612);
#511=AXIS2_PLACEMENT_3D('',#741,#614,#615);
#512=AXIS2_PLACEMENT_3D('',#742,#616,#617);
#513=AXIS2_PLACEMENT_3D('',#744,#618,#619);
#514=AXIS2_PLACEMENT_3D('',#745,#620,$);
#515=AXIS2_PLACEMENT_3D('',#746,#621,#622);
#516=AXIS2_PLACEMENT_3D('',#748,#624,$);
#517=AXIS2_PLACEMENT_3D('',#750,#626,#627);
#518=AXIS2_PLACEMENT_3D('',#751,#628,#629);
#519=AXIS2_PLACEMENT_3D('',#753,#631,$);
#520=AXIS2_PLACEMENT_3D('',#754,#632,#633);
#521=AXIS2_PLACEMENT_3D('',#755,#634,$);
#522=DIRECTION('',(0.,-1.,0.));
#523=DIRECTION('',(0.,-1.,0.));
#524=DIRECTION('',(0.,0.,-3.25));
#525=DIRECTION('',(0.,-1.,0.));
#526=DIRECTION('',(0.,0.,-3.25));
#527=DIRECTION('',(-1.,0.,0.));
#528=DIRECTION('',(0.,0.,-1.));
#529=DIRECTION('',(-1.,0.,0.));
#530=DIRECTION('',(0.,0.,-1.));
#531=DIRECTION('',(1.,0.,0.));
#532=DIRECTION('',(0.,0.,1.5));
#533=DIRECTION('',(-1.,0.,0.));
#534=DIRECTION('',(0.,0.,-1.5));
#535=DIRECTION('',(0.919395406032056,0.393334574334816,0.));
#536=DIRECTION('',(-0.641728093944551,1.49999999997993,0.));
#537=DIRECTION('',(-1.,0.,0.));
#538=DIRECTION('',(1.,0.,0.));
#539=DIRECTION('',(0.,0.,1.5));
#540=DIRECTION('',(-1.,0.,0.));
#541=DIRECTION('',(0.,0.,-1.5));
#542=DIRECTION('',(-1.,0.,0.));
#543=DIRECTION('',(0.919395406032056,0.393334574334816,0.));
#544=DIRECTION('',(-0.641728093944551,1.49999999997993,0.));
#545=DIRECTION('',(0.,0.,1.));
#546=DIRECTION('',(-10.,0.,0.));
#547=DIRECTION('',(0.,2.88889491658085E-31,-1.));
#548=DIRECTION('',(0.,0.,1.));
#549=DIRECTION('',(10.,0.,0.));
#550=DIRECTION('',(0.,0.,-1.));
#551=DIRECTION('',(0.,0.,1.));
#552=DIRECTION('',(10.,0.,0.));
#553=DIRECTION('',(1.,0.,0.));
#554=DIRECTION('',(0.,-1.,0.));
#555=DIRECTION('',(0.,1.,0.));
#556=DIRECTION('',(0.,6.50521303491302E-16,-1.));
#557=DIRECTION('',(0.,-1.,0.));
#558=DIRECTION('',(-1.,0.,0.));
#559=DIRECTION('',(0.,0.,-4.));
#560=DIRECTION('',(0.,0.,-1.));
#561=DIRECTION('',(-1.,0.,0.));
#562=DIRECTION('',(0.,0.,-4.));
#563=DIRECTION('',(0.,-1.,0.));
#564=DIRECTION('',(0.,0.,1.));
#565=DIRECTION('',(-10.,0.,0.));
#566=DIRECTION('',(0.,0.,-1.));
#567=DIRECTION('',(-10.,0.,0.));
#568=DIRECTION('',(0.,0.,-1.));
#569=DIRECTION('',(0.,0.,1.));
#570=DIRECTION('',(10.,0.,0.));
#571=DIRECTION('',(-0.919395406032056,-0.393334574334816,0.));
#572=DIRECTION('',(0.,0.,-1.));
#573=DIRECTION('',(-0.393334574334816,0.919395406032056,0.));
#574=DIRECTION('',(0.393334574334817,-0.919395406032055,0.));
#575=DIRECTION('',(0.,0.,1.));
#576=DIRECTION('',(0.,0.,-1.));
#577=DIRECTION('',(4.,0.,0.));
#578=DIRECTION('',(0.,0.,-1.));
#579=DIRECTION('',(4.,0.,0.));
#580=DIRECTION('',(1.,0.,0.));
#581=DIRECTION('',(0.,0.,1.));
#582=DIRECTION('',(0.,0.,1.));
#583=DIRECTION('',(4.,0.,0.));
#584=DIRECTION('',(1.,0.,0.));
#585=DIRECTION('',(-0.393334574334816,0.919395406032056,0.));
#586=DIRECTION('',(-1.,0.,0.));
#587=DIRECTION('',(0.,0.,-1.));
#588=DIRECTION('',(1.,0.,0.));
#589=DIRECTION('',(0.,0.,4.));
#590=DIRECTION('',(0.,0.,-1.));
#591=DIRECTION('',(1.,0.,0.));
#592=DIRECTION('',(0.,0.,4.));
#593=DIRECTION('',(0.,1.,0.));
#594=DIRECTION('',(0.,1.,0.));
#595=DIRECTION('',(3.25,0.,0.));
#596=DIRECTION('',(0.,1.,0.));
#597=DIRECTION('',(3.25,0.,0.));
#598=DIRECTION('',(-1.,0.,0.));
#599=DIRECTION('',(-1.,0.,0.));
#600=DIRECTION('',(0.,0.,1.));
#601=DIRECTION('',(-4.,0.,0.));
#602=DIRECTION('',(0.,0.,-1.));
#603=DIRECTION('',(0.,0.,1.));
#604=DIRECTION('',(4.,0.,0.));
#605=DIRECTION('',(0.,0.,1.));
#606=DIRECTION('',(0.,0.,1.));
#607=DIRECTION('',(-4.,0.,0.));
#608=DIRECTION('',(0.,0.,-1.));
#609=DIRECTION('',(0.,0.,1.));
#610=DIRECTION('',(4.,0.,0.));
#611=DIRECTION('',(0.,0.,1.));
#612=DIRECTION('',(-4.,0.,0.));
#613=DIRECTION('',(0.,0.,-1.));
#614=DIRECTION('',(0.,0.,1.));
#615=DIRECTION('',(-4.,0.,0.));
#616=DIRECTION('',(0.,0.,-1.));
#617=DIRECTION('',(4.,0.,0.));
#618=DIRECTION('',(0.,0.,-1.));
#619=DIRECTION('',(4.,0.,0.));
#620=DIRECTION('',(0.,0.,1.));
#621=DIRECTION('',(0.,-1.,0.));
#622=DIRECTION('',(0.,0.,3.25));
#623=DIRECTION('',(0.,1.,0.));
#624=DIRECTION('',(0.,0.,1.));
#625=DIRECTION('',(-0.393334574334817,0.919395406032055,0.));
#626=DIRECTION('',(1.,0.,0.));
#627=DIRECTION('',(0.,0.,4.));
#628=DIRECTION('',(0.,-1.,0.));
#629=DIRECTION('',(0.,0.,3.25));
#630=DIRECTION('',(0.,1.,0.));
#631=DIRECTION('',(0.,0.,-1.));
#632=DIRECTION('',(1.,0.,0.));
#633=DIRECTION('',(0.,0.,4.));
#634=DIRECTION('',(-0.919395406032056,-0.393334574334816,0.));
#635=CARTESIAN_POINT('',(32.,-26.,-6.5));
#636=CARTESIAN_POINT('',(16.,-26.,0.));
#637=CARTESIAN_POINT('',(16.,-26.,-3.25));
#638=CARTESIAN_POINT('',(16.,-26.,3.25));
#639=CARTESIAN_POINT('',(-4.,-26.,0.));
#640=CARTESIAN_POINT('',(-4.,-26.,-3.25));
#641=CARTESIAN_POINT('',(-4.,-26.,3.25));
#642=CARTESIAN_POINT('',(22.,-26.,6.5));
#643=CARTESIAN_POINT('',(21.9999999999957,-25.99999999999,6.5));
#644=CARTESIAN_POINT('',(-10.,-26.,6.5));
#645=CARTESIAN_POINT('',(22.,-26.,6.5));
#646=CARTESIAN_POINT('',(21.9999999999957,-25.99999999999,-6.5));
#647=CARTESIAN_POINT('',(22.,-26.,-6.5));
#648=CARTESIAN_POINT('',(-10.,-26.,-6.5));
#649=CARTESIAN_POINT('',(-10.,-26.,6.5));
#650=CARTESIAN_POINT('',(32.,-24.5,-6.5));
#651=CARTESIAN_POINT('',(-10.,-24.5,-6.5));
#652=CARTESIAN_POINT('',(-10.,-24.5,-8.));
#653=CARTESIAN_POINT('',(21.3582719060469,-24.5,-6.5));
#654=CARTESIAN_POINT('',(21.3582719060469,-24.5,-8.));
#655=CARTESIAN_POINT('',(21.3582719060469,-24.5,-8.));
#656=CARTESIAN_POINT('',(32.,-24.5,6.5));
#657=CARTESIAN_POINT('',(-10.,-24.5,6.5));
#658=CARTESIAN_POINT('',(-10.,-24.5,8.));
#659=CARTESIAN_POINT('',(21.3582719060469,-24.5,8.));
#660=CARTESIAN_POINT('',(21.3582719060469,-24.5,8.));
#661=CARTESIAN_POINT('',(21.3582719060469,-24.5,6.5));
#662=CARTESIAN_POINT('',(-1.30104260698261E-15,-2.60208521396521E-15,12.));
#663=CARTESIAN_POINT('',(-10.,0.,12.));
#664=CARTESIAN_POINT('',(-10.,-1.3010426069826E-15,12.));
#665=CARTESIAN_POINT('',(-10.,-1.3010426069826E-15,8.));
#666=CARTESIAN_POINT('',(-1.30104260698261E-15,-2.60208521396521E-15,12.));
#667=CARTESIAN_POINT('',(9.19395406032056,3.93334574334817,12.));
#668=CARTESIAN_POINT('',(9.19395406032056,3.93334574334817,12.));
#669=CARTESIAN_POINT('',(9.19395406032056,3.93334574334817,8.));
#670=CARTESIAN_POINT('',(-1.30104260698261E-15,-2.60208521396521E-15,8.));
#671=CARTESIAN_POINT('',(-10.,0.,12.));
#672=CARTESIAN_POINT('',(-10.,1.15555796663234E-30,8.));
#673=CARTESIAN_POINT('',(-10.,-24.5,-8.));
#674=CARTESIAN_POINT('',(-10.,-3.07739944638286E-15,-8.));
#675=CARTESIAN_POINT('',(-10.,-2.60208521396521E-15,-8.));
#676=CARTESIAN_POINT('',(-10.,-1.3010426069826E-15,-12.));
#677=CARTESIAN_POINT('',(-10.,0.,-12.));
#678=CARTESIAN_POINT('',(-10.,-26.,-12.));
#679=CARTESIAN_POINT('',(-10.,-26.,-8.00000000000001));
#680=CARTESIAN_POINT('',(-10.,-30.,-8.));
#681=CARTESIAN_POINT('',(-10.,-30.,8.));
#682=CARTESIAN_POINT('',(-10.,-30.,8.));
#683=CARTESIAN_POINT('',(-10.,-26.,8.00000000000001));
#684=CARTESIAN_POINT('',(-10.,-26.,12.));
#685=CARTESIAN_POINT('',(-10.,0.,12.));
#686=CARTESIAN_POINT('',(-1.30104260698261E-15,-2.60208521396521E-15,12.));
#687=CARTESIAN_POINT('',(-1.30104260698261E-15,-2.60208521396521E-15,-8.));
#688=CARTESIAN_POINT('',(9.19395406032056,3.93334574334817,-8.));
#689=CARTESIAN_POINT('',(9.19395406032056,3.93334574334817,-8.));
#690=CARTESIAN_POINT('',(9.19395406032056,3.93334574334817,-12.));
#691=CARTESIAN_POINT('',(-1.30104260698261E-15,-2.60208521396521E-15,-12.));
#692=CARTESIAN_POINT('',(22.,-26.,12.));
#693=CARTESIAN_POINT('',(22.,-26.,-6.5));
#694=CARTESIAN_POINT('',(22.,-26.,-12.));
#695=CARTESIAN_POINT('',(22.,-26.,-12.));
#696=CARTESIAN_POINT('',(9.19395406032056,3.93334574334817,-8.));
#697=CARTESIAN_POINT('',(-1.30104260698261E-15,-2.60208521396521E-15,-12.));
#698=CARTESIAN_POINT('',(0.,0.,-12.));
#699=CARTESIAN_POINT('',(-4.,4.93038065763132E-32,-12.));
#700=CARTESIAN_POINT('',(4.,2.44929359829471E-16,-12.));
#701=CARTESIAN_POINT('',(0.,0.,-12.));
#702=CARTESIAN_POINT('',(-10.,-26.,-12.));
#703=CARTESIAN_POINT('',(-1.30104260698261E-15,-2.60208521396521E-15,12.));
#704=CARTESIAN_POINT('',(0.,0.,12.));
#705=CARTESIAN_POINT('',(-4.,2.44929359829471E-16,12.));
#706=CARTESIAN_POINT('',(4.,-4.89858719658941E-16,12.));
#707=CARTESIAN_POINT('',(-10.,-26.,12.));
#708=CARTESIAN_POINT('',(22.,-26.,12.));
#709=CARTESIAN_POINT('',(22.,-26.,12.));
#710=CARTESIAN_POINT('',(22.,-30.,12.));
#711=CARTESIAN_POINT('',(22.,-30.,8.));
#712=CARTESIAN_POINT('',(22.,-30.,8.));
#713=CARTESIAN_POINT('',(22.,-30.,-8.));
#714=CARTESIAN_POINT('',(22.,-26.,-8.00000000000001));
#715=CARTESIAN_POINT('',(22.,-26.,12.));
#716=CARTESIAN_POINT('',(22.,-26.,8.00000000000001));
#717=CARTESIAN_POINT('',(-10.,-30.,12.));
#718=CARTESIAN_POINT('',(16.,-30.,0.));
#719=CARTESIAN_POINT('',(19.25,-30.,9.95025524307225E-17));
#720=CARTESIAN_POINT('',(16.,-30.,3.25));
#721=CARTESIAN_POINT('',(-4.,-30.,0.));
#722=CARTESIAN_POINT('',(-0.75,-30.,9.95025524307225E-17));
#723=CARTESIAN_POINT('',(-4.,-30.,3.25));
#724=CARTESIAN_POINT('',(22.,-30.,-8.));
#725=CARTESIAN_POINT('',(22.,-30.,8.));
#726=CARTESIAN_POINT('',(0.,0.,15.));
#727=CARTESIAN_POINT('',(-4.,0.,12.));
#728=CARTESIAN_POINT('',(-4.,2.44929359829471E-16,15.));
#729=CARTESIAN_POINT('',(0.,0.,15.));
#730=CARTESIAN_POINT('',(4.,-4.89858719658941E-16,15.));
#731=CARTESIAN_POINT('',(0.,0.,15.));
#732=CARTESIAN_POINT('',(0.,0.,15.));
#733=CARTESIAN_POINT('',(-4.,0.,-42.));
#734=CARTESIAN_POINT('',(-4.,2.44929359829471E-16,-15.));
#735=CARTESIAN_POINT('',(0.,0.,-15.));
#736=CARTESIAN_POINT('',(4.,-4.89858719658941E-16,-15.));
#737=CARTESIAN_POINT('',(0.,0.,15.));
#738=CARTESIAN_POINT('',(-4.,0.,-15.));
#739=CARTESIAN_POINT('',(-4.,-2.44929359829471E-16,8.));
#740=CARTESIAN_POINT('',(-4.,4.89858719658941E-16,-8.));
#741=CARTESIAN_POINT('',(0.,0.,-8.));
#742=CARTESIAN_POINT('',(0.,0.,8.));
#743=CARTESIAN_POINT('',(4.,2.44929359829471E-16,8.));
#744=CARTESIAN_POINT('',(0.,0.,8.));
#745=CARTESIAN_POINT('',(0.,0.,-15.));
#746=CARTESIAN_POINT('',(16.,-30.,0.));
#747=CARTESIAN_POINT('',(16.,-26.,3.25));
#748=CARTESIAN_POINT('',(32.,-24.5,8.));
#749=CARTESIAN_POINT('',(21.3582719060469,-24.5,8.));
#750=CARTESIAN_POINT('',(32.,-26.,8.00000000000001));
#751=CARTESIAN_POINT('',(-4.,-30.,0.));
#752=CARTESIAN_POINT('',(-4.,-26.,3.25));
#753=CARTESIAN_POINT('',(32.,10.,-8.));
#754=CARTESIAN_POINT('',(32.,-26.,-8.00000000000001));
#755=CARTESIAN_POINT('',(22.,-26.,12.));
#756=PLANE('',#475);
#757=PLANE('',#487);
#758=PLANE('',#493);
#759=PLANE('',#494);
#760=PLANE('',#497);
#761=PLANE('',#499);
#762=PLANE('',#502);
#763=PLANE('',#507);
#764=PLANE('',#514);
#765=PLANE('',#516);
#766=PLANE('',#519);
#767=PLANE('',#521);
#768=CLOSED_SHELL('',(#452,#453,#454,#455,#456,#457,#458,#459,#460,#461,
#462,#463,#464,#465,#466,#467,#468,#469,#470,#471,#472,#473,#474));
#769=MANIFOLD_SOLID_BREP('',#768);
#770=ADVANCED_BREP_SHAPE_REPRESENTATION('',(#769),#63);
ENDSEC;
END-ISO-10303-21;
