ISO-10303-21;
HEADER;
/* Generated by software containing ST-Developer
 * from STEP Tools, Inc. (www.steptools.com) 
 */

FILE_DESCRIPTION(
/* description */ ('Alibre Inc.'),
/* implementation_level */ '2;1');

FILE_NAME(
/* name */ 'export-2F275AE5-4ED2-4869-AF00-B16F5CE1F18B',
/* time_stamp */ '2022-11-29T10:31:17+01:00',
/* author */ (''),
/* organization */ (''),
/* preprocessor_version */ 'ST-DEVELOPER v17',
/* originating_system */ 'Alibre',
/* authorisation */ '');

FILE_SCHEMA (('AUTOMOTIVE_DESIGN'));
ENDSEC;

DATA;
#10=CONTEXT_DEPENDENT_SHAPE_REPRESENTATION(#16,#44);
#11=CONTEXT_DEPENDENT_SHAPE_REPRESENTATION(#17,#45);
#12=NEXT_ASSEMBLY_USAGE_OCCURRENCE('NAUO_ID9','NAUO_NAME9',$,#48,#46,$);
#13=NEXT_ASSEMBLY_USAGE_OCCURRENCE('NAUO_ID19','NAUO_NAME19',$,#48,#47,
$);
#14=ITEM_DEFINED_TRANSFORMATION('ITD_NAME0',$,#303,#302);
#15=ITEM_DEFINED_TRANSFORMATION('ITD_NAME10',$,#305,#304);
#16=(
REPRESENTATION_RELATIONSHIP('4226 8.000_PART2',$,#63,#65)
REPRESENTATION_RELATIONSHIP_WITH_TRANSFORMATION(#14)
SHAPE_REPRESENTATION_RELATIONSHIP()
);
#17=(
REPRESENTATION_RELATIONSHIP('4226 8.000_PART1',$,#64,#65)
REPRESENTATION_RELATIONSHIP_WITH_TRANSFORMATION(#15)
SHAPE_REPRESENTATION_RELATIONSHIP()
);
#18=STYLED_ITEM('NAME_0',(#33),#449);
#19=STYLED_ITEM('NAME_0',(#34),#450);
#20=MECHANICAL_DESIGN_GEOMETRIC_PRESENTATION_REPRESENTATION('NAME_0',(#18,
#19),#80);
#21=COLOUR_RGB('',0.8,0.8,0.8);
#22=COLOUR_RGB('',0.498039215686275,0.498039215686275,0.498039215686275);
#23=FILL_AREA_STYLE_COLOUR('NAME_0',#21);
#24=FILL_AREA_STYLE_COLOUR('NAME_0',#22);
#25=FILL_AREA_STYLE('NAME_0',(#23));
#26=FILL_AREA_STYLE('NAME_0',(#24));
#27=SURFACE_STYLE_FILL_AREA(#25);
#28=SURFACE_STYLE_FILL_AREA(#26);
#29=SURFACE_SIDE_STYLE('NAME_0',(#27));
#30=SURFACE_SIDE_STYLE('NAME_0',(#28));
#31=SURFACE_STYLE_USAGE(.POSITIVE.,#29);
#32=SURFACE_STYLE_USAGE(.POSITIVE.,#30);
#33=PRESENTATION_STYLE_ASSIGNMENT((#31));
#34=PRESENTATION_STYLE_ASSIGNMENT((#32));
#35=PRODUCT_DEFINITION_CONTEXT('part definition',#56,'design');
#36=PRODUCT_DEFINITION_CONTEXT('part definition',#56,'design');
#37=PRODUCT_DEFINITION_CONTEXT('part definition',#56,'design');
#38=SHAPE_DEFINITION_REPRESENTATION(#41,#63);
#39=SHAPE_DEFINITION_REPRESENTATION(#42,#64);
#40=SHAPE_DEFINITION_REPRESENTATION(#43,#65);
#41=PRODUCT_DEFINITION_SHAPE('PRODUCT_VERSION_ID',
'PRODUCT_VERSION_DESCR',#46);
#42=PRODUCT_DEFINITION_SHAPE('PRODUCT_VERSION_ID',
'PRODUCT_VERSION_DESCR',#47);
#43=PRODUCT_DEFINITION_SHAPE('PRODUCT_VERSION_ID',
'PRODUCT_VERSION_DESCR',#48);
#44=PRODUCT_DEFINITION_SHAPE('NAME_10',$,#12);
#45=PRODUCT_DEFINITION_SHAPE('NAME_20',$,#13);
#46=PRODUCT_DEFINITION('4226 8.000_PART2','PRODUCT_VERSION_DESCR',#49,#35);
#47=PRODUCT_DEFINITION('4226 8.000_PART1','PRODUCT_VERSION_DESCR',#50,#36);
#48=PRODUCT_DEFINITION('PRODUCT_VERSION_ID','PRODUCT_VERSION_DESCR',#51,
#37);
#49=PRODUCT_DEFINITION_FORMATION_WITH_SPECIFIED_SOURCE(
'PRODUCT_VERSION_ID','PRODUCT_VERSION_DESCR',#60,.MADE.);
#50=PRODUCT_DEFINITION_FORMATION_WITH_SPECIFIED_SOURCE(
'PRODUCT_VERSION_ID','PRODUCT_VERSION_DESCR',#61,.MADE.);
#51=PRODUCT_DEFINITION_FORMATION_WITH_SPECIFIED_SOURCE(
'PRODUCT_VERSION_ID','PRODUCT_VERSION_DESCR',#62,.MADE.);
#52=PRODUCT_RELATED_PRODUCT_CATEGORY('part','part',(#60));
#53=PRODUCT_RELATED_PRODUCT_CATEGORY('part','part',(#61));
#54=PRODUCT_RELATED_PRODUCT_CATEGORY('part','part',(#62));
#55=APPLICATION_PROTOCOL_DEFINITION('Draft International Standard',
'automotive_design',1994,#56);
#56=APPLICATION_CONTEXT('automotive_Design');
#57=PRODUCT_CONTEXT('3D Mechanical Parts',#56,'mechanical');
#58=PRODUCT_CONTEXT('3D Mechanical Parts',#56,'mechanical');
#59=PRODUCT_CONTEXT('3D Mechanical Parts',#56,'mechanical');
#60=PRODUCT('4226 8.000_PART2','4226 8.000_PART2','',(#57));
#61=PRODUCT('4226 8.000_PART1','4226 8.000_PART1','',(#58));
#62=PRODUCT('4226 8.000',
'6152 M8x1,25 Micro-thread milling cutter, 9042260080000','',(#59));
#63=SHAPE_REPRESENTATION('4226 8.000_PART2',(#303),#80);
#64=SHAPE_REPRESENTATION('4226 8.000_PART1',(#305),#81);
#65=SHAPE_REPRESENTATION('NAME_0',(#302,#304),#82);
#66=SHAPE_REPRESENTATION_RELATIONSHIP('NAME_0',$,#63,#451);
#67=SHAPE_REPRESENTATION_RELATIONSHIP('NAME_0',$,#64,#452);
#68=(
LENGTH_UNIT()
NAMED_UNIT(*)
SI_UNIT(.MILLI.,.METRE.)
);
#69=(
LENGTH_UNIT()
NAMED_UNIT(*)
SI_UNIT(.MILLI.,.METRE.)
);
#70=(
LENGTH_UNIT()
NAMED_UNIT(*)
SI_UNIT(.MILLI.,.METRE.)
);
#71=(
NAMED_UNIT(*)
PLANE_ANGLE_UNIT()
SI_UNIT($,.RADIAN.)
);
#72=(
NAMED_UNIT(*)
PLANE_ANGLE_UNIT()
SI_UNIT($,.RADIAN.)
);
#73=(
NAMED_UNIT(*)
PLANE_ANGLE_UNIT()
SI_UNIT($,.RADIAN.)
);
#74=(
NAMED_UNIT(*)
SI_UNIT($,.STERADIAN.)
SOLID_ANGLE_UNIT()
);
#75=(
NAMED_UNIT(*)
SI_UNIT($,.STERADIAN.)
SOLID_ANGLE_UNIT()
);
#76=(
NAMED_UNIT(*)
SI_UNIT($,.STERADIAN.)
SOLID_ANGLE_UNIT()
);
#77=UNCERTAINTY_MEASURE_WITH_UNIT(LENGTH_MEASURE(1.E-6),#68,
'DISTANCE_ACCURACY_VALUE',
'Maximum model space distance between geometric entities at asserted c
onnectivities');
#78=UNCERTAINTY_MEASURE_WITH_UNIT(LENGTH_MEASURE(1.E-6),#69,
'DISTANCE_ACCURACY_VALUE',
'Maximum model space distance between geometric entities at asserted c
onnectivities');
#79=UNCERTAINTY_MEASURE_WITH_UNIT(LENGTH_MEASURE(1.E-6),#70,
'DISTANCE_ACCURACY_VALUE',
'Maximum model space distance between geometric entities at asserted c
onnectivities');
#80=(
GEOMETRIC_REPRESENTATION_CONTEXT(3)
GLOBAL_UNCERTAINTY_ASSIGNED_CONTEXT((#77))
GLOBAL_UNIT_ASSIGNED_CONTEXT((#74,#71,#68))
REPRESENTATION_CONTEXT('ID1','3D')
);
#81=(
GEOMETRIC_REPRESENTATION_CONTEXT(3)
GLOBAL_UNCERTAINTY_ASSIGNED_CONTEXT((#78))
GLOBAL_UNIT_ASSIGNED_CONTEXT((#75,#72,#69))
REPRESENTATION_CONTEXT('ID1','3D')
);
#82=(
GEOMETRIC_REPRESENTATION_CONTEXT(3)
GLOBAL_UNCERTAINTY_ASSIGNED_CONTEXT((#79))
GLOBAL_UNIT_ASSIGNED_CONTEXT((#76,#73,#70))
REPRESENTATION_CONTEXT('ID1','3D')
);
#83=PLANE('',#281);
#84=PLANE('',#282);
#85=PLANE('',#288);
#86=PLANE('',#293);
#87=CYLINDRICAL_SURFACE('',#278,2.975);
#88=CYLINDRICAL_SURFACE('',#279,2.25);
#89=CYLINDRICAL_SURFACE('',#283,2.501);
#90=CYLINDRICAL_SURFACE('',#297,3.);
#91=CYLINDRICAL_SURFACE('',#301,2.25);
#92=CIRCLE('',#273,2.965);
#93=CIRCLE('',#274,2.975);
#94=CIRCLE('',#276,2.25);
#95=CIRCLE('',#277,2.975);
#96=CIRCLE('',#280,2.25);
#97=CIRCLE('',#284,2.501);
#98=CIRCLE('',#285,2.501);
#99=CIRCLE('',#286,2.501);
#100=CIRCLE('',#287,2.501);
#101=CIRCLE('',#289,2.25);
#102=CIRCLE('',#291,2.5000000000018);
#103=CIRCLE('',#292,2.5000000000018);
#104=CIRCLE('',#295,3.);
#105=CIRCLE('',#296,3.);
#106=CIRCLE('',#298,3.);
#107=CIRCLE('',#300,2.25);
#108=VERTEX_POINT('',#308);
#109=VERTEX_POINT('',#309);
#110=VERTEX_POINT('',#314);
#111=VERTEX_POINT('',#315);
#112=VERTEX_POINT('',#317);
#113=VERTEX_POINT('',#319);
#114=VERTEX_POINT('',#324);
#115=VERTEX_POINT('',#330);
#116=VERTEX_POINT('',#331);
#117=VERTEX_POINT('',#333);
#118=VERTEX_POINT('',#336);
#119=VERTEX_POINT('',#340);
#120=VERTEX_POINT('',#343);
#121=VERTEX_POINT('',#345);
#122=VERTEX_POINT('',#350);
#123=VERTEX_POINT('',#352);
#124=VERTEX_POINT('',#356);
#125=VERTEX_POINT('',#360);
#126=VECTOR('',#370,1.);
#127=VECTOR('',#377,1.);
#128=VECTOR('',#384,1.);
#129=VECTOR('',#387,1.);
#130=VECTOR('',#394,1.);
#131=VECTOR('',#408,1.);
#132=VECTOR('',#416,1.);
#133=VECTOR('',#423,1.);
#134=VECTOR('',#428,1.);
#135=VECTOR('',#433,1.);
#136=LINE('',#307,#126);
#137=LINE('',#313,#127);
#138=LINE('',#321,#128);
#139=LINE('',#323,#129);
#140=LINE('',#329,#130);
#141=LINE('',#342,#131);
#142=LINE('',#349,#132);
#143=LINE('',#355,#133);
#144=LINE('',#359,#134);
#145=LINE('',#363,#135);
#146=EDGE_CURVE('',#108,#109,#136,.T.);
#147=EDGE_CURVE('',#109,#109,#92,.T.);
#148=EDGE_CURVE('',#108,#108,#93,.T.);
#149=EDGE_CURVE('',#110,#111,#137,.T.);
#150=EDGE_CURVE('',#112,#111,#94,.T.);
#151=EDGE_CURVE('',#111,#112,#94,.T.);
#152=EDGE_CURVE('',#110,#113,#95,.T.);
#153=EDGE_CURVE('',#113,#110,#95,.T.);
#154=EDGE_CURVE('',#108,#113,#138,.T.);
#155=EDGE_CURVE('',#112,#114,#139,.T.);
#156=EDGE_CURVE('',#114,#114,#96,.T.);
#157=EDGE_CURVE('',#115,#116,#140,.T.);
#158=EDGE_CURVE('',#117,#116,#97,.T.);
#159=EDGE_CURVE('',#116,#117,#98,.T.);
#160=EDGE_CURVE('',#115,#118,#99,.T.);
#161=EDGE_CURVE('',#118,#115,#100,.T.);
#162=EDGE_CURVE('',#119,#119,#101,.F.);
#163=EDGE_CURVE('',#117,#120,#141,.T.);
#164=EDGE_CURVE('',#121,#120,#102,.F.);
#165=EDGE_CURVE('',#120,#121,#103,.F.);
#166=EDGE_CURVE('',#122,#118,#142,.T.);
#167=EDGE_CURVE('',#122,#123,#104,.F.);
#168=EDGE_CURVE('',#123,#122,#105,.F.);
#169=EDGE_CURVE('',#124,#123,#143,.T.);
#170=EDGE_CURVE('',#124,#124,#106,.F.);
#171=EDGE_CURVE('',#124,#125,#144,.T.);
#172=EDGE_CURVE('',#125,#125,#107,.T.);
#173=EDGE_CURVE('',#119,#125,#145,.T.);
#174=ORIENTED_EDGE('',*,*,#146,.T.);
#175=ORIENTED_EDGE('',*,*,#147,.T.);
#176=ORIENTED_EDGE('',*,*,#146,.F.);
#177=ORIENTED_EDGE('',*,*,#148,.F.);
#178=ORIENTED_EDGE('',*,*,#149,.T.);
#179=ORIENTED_EDGE('',*,*,#150,.F.);
#180=ORIENTED_EDGE('',*,*,#151,.F.);
#181=ORIENTED_EDGE('',*,*,#149,.F.);
#182=ORIENTED_EDGE('',*,*,#152,.T.);
#183=ORIENTED_EDGE('',*,*,#153,.T.);
#184=ORIENTED_EDGE('',*,*,#154,.T.);
#185=ORIENTED_EDGE('',*,*,#152,.F.);
#186=ORIENTED_EDGE('',*,*,#153,.F.);
#187=ORIENTED_EDGE('',*,*,#154,.F.);
#188=ORIENTED_EDGE('',*,*,#148,.T.);
#189=ORIENTED_EDGE('',*,*,#155,.T.);
#190=ORIENTED_EDGE('',*,*,#156,.T.);
#191=ORIENTED_EDGE('',*,*,#155,.F.);
#192=ORIENTED_EDGE('',*,*,#150,.T.);
#193=ORIENTED_EDGE('',*,*,#151,.T.);
#194=ORIENTED_EDGE('',*,*,#147,.F.);
#195=ORIENTED_EDGE('',*,*,#156,.F.);
#196=ORIENTED_EDGE('',*,*,#157,.T.);
#197=ORIENTED_EDGE('',*,*,#158,.F.);
#198=ORIENTED_EDGE('',*,*,#159,.F.);
#199=ORIENTED_EDGE('',*,*,#157,.F.);
#200=ORIENTED_EDGE('',*,*,#160,.T.);
#201=ORIENTED_EDGE('',*,*,#161,.T.);
#202=ORIENTED_EDGE('',*,*,#162,.T.);
#203=ORIENTED_EDGE('',*,*,#163,.T.);
#204=ORIENTED_EDGE('',*,*,#164,.F.);
#205=ORIENTED_EDGE('',*,*,#165,.F.);
#206=ORIENTED_EDGE('',*,*,#163,.F.);
#207=ORIENTED_EDGE('',*,*,#158,.T.);
#208=ORIENTED_EDGE('',*,*,#159,.T.);
#209=ORIENTED_EDGE('',*,*,#164,.T.);
#210=ORIENTED_EDGE('',*,*,#165,.T.);
#211=ORIENTED_EDGE('',*,*,#166,.T.);
#212=ORIENTED_EDGE('',*,*,#160,.F.);
#213=ORIENTED_EDGE('',*,*,#161,.F.);
#214=ORIENTED_EDGE('',*,*,#166,.F.);
#215=ORIENTED_EDGE('',*,*,#167,.T.);
#216=ORIENTED_EDGE('',*,*,#168,.T.);
#217=ORIENTED_EDGE('',*,*,#169,.T.);
#218=ORIENTED_EDGE('',*,*,#167,.F.);
#219=ORIENTED_EDGE('',*,*,#168,.F.);
#220=ORIENTED_EDGE('',*,*,#169,.F.);
#221=ORIENTED_EDGE('',*,*,#170,.T.);
#222=ORIENTED_EDGE('',*,*,#171,.T.);
#223=ORIENTED_EDGE('',*,*,#172,.T.);
#224=ORIENTED_EDGE('',*,*,#171,.F.);
#225=ORIENTED_EDGE('',*,*,#170,.F.);
#226=ORIENTED_EDGE('',*,*,#173,.T.);
#227=ORIENTED_EDGE('',*,*,#172,.F.);
#228=ORIENTED_EDGE('',*,*,#173,.F.);
#229=ORIENTED_EDGE('',*,*,#162,.F.);
#230=EDGE_LOOP('',(#174,#175,#176,#177));
#231=EDGE_LOOP('',(#178,#179,#180,#181,#182,#183));
#232=EDGE_LOOP('',(#184,#185,#186,#187,#188));
#233=EDGE_LOOP('',(#189,#190,#191,#192,#193));
#234=EDGE_LOOP('',(#194));
#235=EDGE_LOOP('',(#195));
#236=EDGE_LOOP('',(#196,#197,#198,#199,#200,#201));
#237=EDGE_LOOP('',(#202));
#238=EDGE_LOOP('',(#203,#204,#205,#206,#207,#208));
#239=EDGE_LOOP('',(#209,#210));
#240=EDGE_LOOP('',(#211,#212,#213,#214,#215,#216));
#241=EDGE_LOOP('',(#217,#218,#219,#220,#221));
#242=EDGE_LOOP('',(#222,#223,#224,#225));
#243=EDGE_LOOP('',(#226,#227,#228,#229));
#244=FACE_BOUND('',#230,.T.);
#245=FACE_BOUND('',#231,.T.);
#246=FACE_BOUND('',#232,.T.);
#247=FACE_BOUND('',#233,.T.);
#248=FACE_BOUND('',#234,.T.);
#249=FACE_BOUND('',#235,.T.);
#250=FACE_BOUND('',#236,.T.);
#251=FACE_BOUND('',#237,.T.);
#252=FACE_BOUND('',#238,.T.);
#253=FACE_BOUND('',#239,.T.);
#254=FACE_BOUND('',#240,.T.);
#255=FACE_BOUND('',#241,.T.);
#256=FACE_BOUND('',#242,.T.);
#257=FACE_BOUND('',#243,.T.);
#258=ADVANCED_FACE('',(#244),#442,.T.);
#259=ADVANCED_FACE('',(#245),#443,.T.);
#260=ADVANCED_FACE('',(#246),#87,.T.);
#261=ADVANCED_FACE('',(#247),#88,.T.);
#262=ADVANCED_FACE('',(#248),#83,.T.);
#263=ADVANCED_FACE('',(#249),#84,.T.);
#264=ADVANCED_FACE('',(#250),#89,.T.);
#265=ADVANCED_FACE('',(#251),#85,.F.);
#266=ADVANCED_FACE('',(#252),#444,.T.);
#267=ADVANCED_FACE('',(#253),#86,.F.);
#268=ADVANCED_FACE('',(#254),#445,.T.);
#269=ADVANCED_FACE('',(#255),#90,.T.);
#270=ADVANCED_FACE('',(#256),#446,.T.);
#271=ADVANCED_FACE('',(#257),#91,.T.);
#272=AXIS2_PLACEMENT_3D('',#306,#368,#369);
#273=AXIS2_PLACEMENT_3D('',#310,#371,#372);
#274=AXIS2_PLACEMENT_3D('',#311,#373,#374);
#275=AXIS2_PLACEMENT_3D('',#312,#375,#376);
#276=AXIS2_PLACEMENT_3D('',#316,#378,#379);
#277=AXIS2_PLACEMENT_3D('',#318,#380,#381);
#278=AXIS2_PLACEMENT_3D('',#320,#382,#383);
#279=AXIS2_PLACEMENT_3D('',#322,#385,#386);
#280=AXIS2_PLACEMENT_3D('',#325,#388,#389);
#281=AXIS2_PLACEMENT_3D('',#326,#390,$);
#282=AXIS2_PLACEMENT_3D('',#327,#391,$);
#283=AXIS2_PLACEMENT_3D('',#328,#392,#393);
#284=AXIS2_PLACEMENT_3D('',#332,#395,#396);
#285=AXIS2_PLACEMENT_3D('',#334,#397,#398);
#286=AXIS2_PLACEMENT_3D('',#335,#399,#400);
#287=AXIS2_PLACEMENT_3D('',#337,#401,#402);
#288=AXIS2_PLACEMENT_3D('',#338,#403,$);
#289=AXIS2_PLACEMENT_3D('',#339,#404,#405);
#290=AXIS2_PLACEMENT_3D('',#341,#406,#407);
#291=AXIS2_PLACEMENT_3D('',#344,#409,#410);
#292=AXIS2_PLACEMENT_3D('',#346,#411,#412);
#293=AXIS2_PLACEMENT_3D('',#347,#413,$);
#294=AXIS2_PLACEMENT_3D('',#348,#414,#415);
#295=AXIS2_PLACEMENT_3D('',#351,#417,#418);
#296=AXIS2_PLACEMENT_3D('',#353,#419,#420);
#297=AXIS2_PLACEMENT_3D('',#354,#421,#422);
#298=AXIS2_PLACEMENT_3D('',#357,#424,#425);
#299=AXIS2_PLACEMENT_3D('',#358,#426,#427);
#300=AXIS2_PLACEMENT_3D('',#361,#429,#430);
#301=AXIS2_PLACEMENT_3D('',#362,#431,#432);
#302=AXIS2_PLACEMENT_3D('AXIS_PLACEMENT_1',#364,#434,#435);
#303=AXIS2_PLACEMENT_3D('AXIS_PLACEMENT_5',#365,#436,#437);
#304=AXIS2_PLACEMENT_3D('AXIS_PLACEMENT_11',#366,#438,#439);
#305=AXIS2_PLACEMENT_3D('AXIS_PLACEMENT_15',#367,#440,#441);
#306=CARTESIAN_POINT('',(0.,0.,-58.));
#307=CARTESIAN_POINT('',(2.97399999996385,0.,-57.99100000002));
#308=CARTESIAN_POINT('',(2.97499999998603,-3.64332422746338E-16,-57.99000000001));
#309=CARTESIAN_POINT('',(2.9649999999975,-3.6310777594719E-16,-58.000000000005));
#310=CARTESIAN_POINT('',(-5.14468517510166E-32,0.,-58.00000000001));
#311=CARTESIAN_POINT('',(3.07522863870032E-31,0.,-57.99000000001));
#312=CARTESIAN_POINT('',(0.,0.,-54.1499423630951));
#313=CARTESIAN_POINT('',(-2.90249999818881,0.,-54.5342942363295));
#314=CARTESIAN_POINT('',(-2.97499999898341,0.,-54.57700000001));
#315=CARTESIAN_POINT('',(-2.25000000000219,-1.1369734870692E-15,-54.1499423631014));
#316=CARTESIAN_POINT('',(-4.59473592275524E-32,0.,-54.1499423631051));
#317=CARTESIAN_POINT('',(2.25000000000219,-1.37772764903809E-16,-54.1499423631014));
#318=CARTESIAN_POINT('',(-1.92592994438724E-32,0.,-54.57700000001));
#319=CARTESIAN_POINT('',(2.97499999898341,3.19370446083912E-9,-54.57700000001));
#320=CARTESIAN_POINT('',(0.,0.,-2.7896521898052E-15));
#321=CARTESIAN_POINT('',(2.975,0.,-112.56700000002));
#322=CARTESIAN_POINT('',(0.,0.,-2.7896521898052E-15));
#323=CARTESIAN_POINT('',(2.25,0.,-107.92288472621));
#324=CARTESIAN_POINT('',(2.25,2.75545529808154E-16,-53.7729423631001));
#325=CARTESIAN_POINT('',(0.,0.,-53.7729423631051));
#326=CARTESIAN_POINT('',(0.,2.965,-58.));
#327=CARTESIAN_POINT('',(0.,0.,-53.7729423630951));
#328=CARTESIAN_POINT('',(0.,0.,-2.7896521898052E-15));
#329=CARTESIAN_POINT('',(2.501,0.,-0.0111000000200012));
#330=CARTESIAN_POINT('',(2.501,-1.53142082191785E-16,-0.0100999991043464));
#331=CARTESIAN_POINT('',(2.501,-3.92716577244228E-12,-0.00100000000000234));
#332=CARTESIAN_POINT('',(0.,0.,-0.00100000000000234));
#333=CARTESIAN_POINT('',(-2.501000000005,3.92657693287646E-12,-0.00100000000750201));
#334=CARTESIAN_POINT('',(0.,0.,-0.00100000000000234));
#335=CARTESIAN_POINT('',(0.,0.,-0.0100999991043464));
#336=CARTESIAN_POINT('',(-2.50100000022641,0.,-0.0100999997835875));
#337=CARTESIAN_POINT('',(0.,0.,-0.0100999991043464));
#338=CARTESIAN_POINT('',(0.,0.,-53.7729423630951));
#339=CARTESIAN_POINT('',(0.,0.,-53.7729423630951));
#340=CARTESIAN_POINT('',(2.25,2.75545529808154E-16,-53.7729423631001));
#341=CARTESIAN_POINT('',(0.,0.,-0.00100000000000234));
#342=CARTESIAN_POINT('',(-2.49990000002198,0.,9.99999799970819E-5));
#343=CARTESIAN_POINT('',(-2.5000000000018,9.26396400998652E-12,-2.94274153656016E-15));
#344=CARTESIAN_POINT('',(8.44000952541696E-20,0.,-2.94274153656016E-15));
#345=CARTESIAN_POINT('',(2.50000000000295,-1.53080849893058E-16,-5.00301926623092E-12));
#346=CARTESIAN_POINT('',(8.44000952541696E-20,0.,-2.94274153656016E-15));
#347=CARTESIAN_POINT('',(0.,2.5,-2.94274153656016E-15));
#348=CARTESIAN_POINT('',(0.,0.,-0.5091));
#349=CARTESIAN_POINT('',(-2.45110000100522,0.,0.0397999999799986));
#350=CARTESIAN_POINT('',(-3.000000000005,0.,-0.5091000000075));
#351=CARTESIAN_POINT('',(0.,0.,-0.5091));
#352=CARTESIAN_POINT('',(3.0000000000025,-1.83697019871797E-16,-0.5091000000075));
#353=CARTESIAN_POINT('',(0.,0.,-0.5091));
#354=CARTESIAN_POINT('',(0.,0.,-2.7896521898052E-15));
#355=CARTESIAN_POINT('',(3.,0.,-33.3090042574385));
#356=CARTESIAN_POINT('',(2.99999999999711,-3.67394039744206E-16,-32.7999042574285));
#357=CARTESIAN_POINT('',(0.,0.,-32.7999042574185));
#358=CARTESIAN_POINT('',(0.,0.,-32.7999042574185));
#359=CARTESIAN_POINT('',(2.1750000011284,0.,-34.2288461736828));
#360=CARTESIAN_POINT('',(2.25000000038645,-2.75545529808154E-16,-34.0989423633282));
#361=CARTESIAN_POINT('',(0.,0.,-34.09894236489));
#362=CARTESIAN_POINT('',(0.,0.,-2.7896521898052E-15));
#363=CARTESIAN_POINT('',(2.25,0.,-87.8718847262102));
#364=CARTESIAN_POINT('CARTESIAN_POINT4',(0.,0.,0.));
#365=CARTESIAN_POINT('CARTESIAN_POINT8',(0.,0.,0.));
#366=CARTESIAN_POINT('CARTESIAN_POINT14',(0.,0.,0.));
#367=CARTESIAN_POINT('CARTESIAN_POINT18',(0.,0.,0.));
#368=DIRECTION('',(4.15102854271375E-17,0.,1.));
#369=DIRECTION('',(2.965,0.,-1.23077996291463E-16));
#370=DIRECTION('',(-0.707106780551956,0.,-0.70710678182114));
#371=DIRECTION('',(0.,0.,1.));
#372=DIRECTION('',(2.965,0.,0.));
#373=DIRECTION('',(0.,0.,1.));
#374=DIRECTION('',(2.975,0.,0.));
#375=DIRECTION('',(1.22457327230784E-17,0.,-1.));
#376=DIRECTION('',(-2.25,0.,-2.75528986269264E-17));
#377=DIRECTION('',(0.86162915981389,0.,0.507538364026217));
#378=DIRECTION('',(0.,0.,1.));
#379=DIRECTION('',(2.25,0.,0.));
#380=DIRECTION('',(0.,0.,1.));
#381=DIRECTION('',(2.975,0.,0.));
#382=DIRECTION('',(0.,0.,-1.));
#383=DIRECTION('',(2.975,0.,0.));
#384=DIRECTION('',(0.,0.,1.));
#385=DIRECTION('',(0.,0.,-1.));
#386=DIRECTION('',(2.25,0.,0.));
#387=DIRECTION('',(0.,0.,1.));
#388=DIRECTION('',(0.,0.,-1.));
#389=DIRECTION('',(2.25,0.,0.));
#390=DIRECTION('',(0.,0.,-1.));
#391=DIRECTION('',(0.,0.,1.));
#392=DIRECTION('',(0.,0.,-1.));
#393=DIRECTION('',(2.501,0.,0.));
#394=DIRECTION('',(0.,0.,1.));
#395=DIRECTION('',(0.,0.,1.));
#396=DIRECTION('',(2.501,0.,0.));
#397=DIRECTION('',(0.,0.,1.));
#398=DIRECTION('',(2.501,0.,0.));
#399=DIRECTION('',(0.,0.,1.));
#400=DIRECTION('',(2.501,0.,0.));
#401=DIRECTION('',(0.,0.,1.));
#402=DIRECTION('',(2.501,0.,0.));
#403=DIRECTION('',(0.,0.,1.));
#404=DIRECTION('',(0.,0.,1.));
#405=DIRECTION('',(2.25,0.,0.));
#406=DIRECTION('',(-8.44000952542205E-17,0.,-1.));
#407=DIRECTION('',(-2.501,0.,2.11084638230805E-16));
#408=DIRECTION('',(0.707106780551956,0.,0.707106781821139));
#409=DIRECTION('',(0.,0.,-1.));
#410=DIRECTION('',(-2.5000000000018,0.,2.11000238135703E-16));
#411=DIRECTION('',(0.,0.,-1.));
#412=DIRECTION('',(-2.5000000000018,0.,2.11000238135703E-16));
#413=DIRECTION('',(0.,0.,-1.));
#414=DIRECTION('',(-7.11271215847924E-17,0.,-1.));
#415=DIRECTION('',(-3.,0.,2.13381364754377E-16));
#416=DIRECTION('',(0.707106780551956,0.,0.70710678182114));
#417=DIRECTION('',(0.,0.,-1.));
#418=DIRECTION('',(3.,0.,0.));
#419=DIRECTION('',(0.,0.,-1.));
#420=DIRECTION('',(3.,0.,0.));
#421=DIRECTION('',(0.,0.,-1.));
#422=DIRECTION('',(3.,0.,0.));
#423=DIRECTION('',(0.,0.,1.));
#424=DIRECTION('',(0.,0.,-1.));
#425=DIRECTION('',(3.,0.,0.));
#426=DIRECTION('',(-8.36947269709626E-17,0.,1.));
#427=DIRECTION('',(3.,0.,2.51084180912888E-16));
#428=DIRECTION('',(-0.499999999481858,0.,-0.866025404083588));
#429=DIRECTION('',(0.,0.,1.));
#430=DIRECTION('',(2.25,0.,0.));
#431=DIRECTION('',(0.,0.,-1.));
#432=DIRECTION('',(2.25,0.,0.));
#433=DIRECTION('',(0.,0.,1.));
#434=DIRECTION('DIRECTION2',(0.,0.,1.));
#435=DIRECTION('DIRECTION3',(1.,0.,0.));
#436=DIRECTION('DIRECTION6',(0.,0.,1.));
#437=DIRECTION('DIRECTION7',(1.,0.,0.));
#438=DIRECTION('DIRECTION12',(0.,0.,1.));
#439=DIRECTION('DIRECTION13',(1.,0.,0.));
#440=DIRECTION('DIRECTION16',(0.,0.,1.));
#441=DIRECTION('DIRECTION17',(1.,0.,0.));
#442=CONICAL_SURFACE('',#272,2.965,0.7853981625);
#443=CONICAL_SURFACE('',#275,2.25,1.0384709037);
#444=CONICAL_SURFACE('',#290,2.501,0.7853981625);
#445=CONICAL_SURFACE('',#294,3.,0.7853981625);
#446=CONICAL_SURFACE('',#299,3.,0.523598775);
#447=CLOSED_SHELL('',(#258,#259,#260,#261,#262,#263));
#448=CLOSED_SHELL('',(#264,#265,#266,#267,#268,#269,#270,#271));
#449=MANIFOLD_SOLID_BREP('',#447);
#450=MANIFOLD_SOLID_BREP('',#448);
#451=ADVANCED_BREP_SHAPE_REPRESENTATION('4226 8.000_PART2',(#449),#80);
#452=ADVANCED_BREP_SHAPE_REPRESENTATION('4226 8.000_PART1',(#450),#81);
ENDSEC;
END-ISO-10303-21;
