ISO-10303-21;
HEADER;

/* File generated by Alibre Version V23 */

FILE_DESCRIPTION(('HOOPS Exchange Step'),'2;1');

FILE_NAME('C:\\Users\\User\\AppData\\Local\\Temp\\Alibre Design\\export-B8194AD6-1840-4565-86D4-A5BF1B34F847.stp',
'2022-11-29T10:31:50+01:00',
('User'),
('Alibre'),
'HOOPS Exchange 2021.0',
'Alibre',
'Unknown authorisation');

FILE_SCHEMA( ('AP242_MANAGED_MODEL_BASED_3D_ENGINEERING_MIM_LF {1 0 10303 442 1 1 4 }') );

ENDSEC;

DATA;
#3=(NAMED_UNIT(*)PLANE_ANGLE_UNIT()SI_UNIT($,.RADIAN.));
#4=PLANE_ANGLE_MEASURE_WITH_UNIT(PLANE_ANGLE_MEASURE(0.0174532925),#3);
#5=(CONVERSION_BASED_UNIT('DEGREE',#4)NAMED_UNIT(#6)PLANE_ANGLE_UNIT());
#6=DIMENSIONAL_EXPONENTS(0.,0.,0.,0.,0.,0.,0.);
#7=(NAMED_UNIT(*)SI_UNIT($,.STERADIAN.)SOLID_ANGLE_UNIT());
#8=(LENGTH_UNIT()NAMED_UNIT(*)SI_UNIT(.MILLI.,.METRE.));
#9=UNCERTAINTY_MEASURE_WITH_UNIT(LENGTH_MEASURE(1.000000E-03),#8,'DISTANCE_ACCURACY_VALUE','Maximum Tolerance applied to model');
#10=(GEOMETRIC_REPRESENTATION_CONTEXT(3)GLOBAL_UNCERTAINTY_ASSIGNED_CONTEXT((#9))GLOBAL_UNIT_ASSIGNED_CONTEXT((#8,#5,#7))REPRESENTATION_CONTEXT('','6152 M8x1,25 Micro-thread milling cutter, 9042260080000'));
#12=CARTESIAN_POINT('',(0.,0.,0.));
#13=DIRECTION('',(0.,0.,1.));
#14=DIRECTION('',(1.,0.,0.));
#15=AXIS2_PLACEMENT_3D('',#12,#13,#14);
#26=(NAMED_UNIT(*)PLANE_ANGLE_UNIT()SI_UNIT($,.RADIAN.));
#27=PLANE_ANGLE_MEASURE_WITH_UNIT(PLANE_ANGLE_MEASURE(0.0174532925),#26);
#28=(CONVERSION_BASED_UNIT('DEGREE',#27)NAMED_UNIT(#29)PLANE_ANGLE_UNIT());
#29=DIMENSIONAL_EXPONENTS(0.,0.,0.,0.,0.,0.,0.);
#30=(NAMED_UNIT(*)SI_UNIT($,.STERADIAN.)SOLID_ANGLE_UNIT());
#31=(LENGTH_UNIT()NAMED_UNIT(*)SI_UNIT(.MILLI.,.METRE.));
#32=UNCERTAINTY_MEASURE_WITH_UNIT(LENGTH_MEASURE(1.000000E-06),#31,'DISTANCE_ACCURACY_VALUE','Maximum Tolerance applied to model');
#33=(GEOMETRIC_REPRESENTATION_CONTEXT(3)GLOBAL_UNCERTAINTY_ASSIGNED_CONTEXT((#32))GLOBAL_UNIT_ASSIGNED_CONTEXT((#31,#28,#30))REPRESENTATION_CONTEXT('','4226 8.000_PART2'));
#35=CARTESIAN_POINT('',(0.,0.,0.));
#36=DIRECTION('',(0.,0.,1.));
#37=DIRECTION('',(1.,0.,0.));
#38=AXIS2_PLACEMENT_3D('',#35,#36,#37);
#49=CARTESIAN_POINT('',(0.,0.,0.));
#50=DIRECTION('',(0.,0.,1.));
#51=DIRECTION('',(1.,0.,-0.));
#52=AXIS2_PLACEMENT_3D('',#49,#50,#51);
#53=ITEM_DEFINED_TRANSFORMATION('','',#52,#38);
#54=(REPRESENTATION_RELATIONSHIP('','',#39,#16)REPRESENTATION_RELATIONSHIP_WITH_TRANSFORMATION(#53)SHAPE_REPRESENTATION_RELATIONSHIP());
#55=NEXT_ASSEMBLY_USAGE_OCCURRENCE('4226 8.000_PART2_1','4226 8.000_PART2','4226 8.000_PART2',#25,#48,$);
#56=PRODUCT_DEFINITION_SHAPE('','',#55);
#57=CONTEXT_DEPENDENT_SHAPE_REPRESENTATION(#54,#56);
#59=CARTESIAN_POINT('',(0.,0.,-58.));
#60=DIRECTION('',(0.,0.,1.));
#61=DIRECTION('',(1.,0.,-0.));
#62=AXIS2_PLACEMENT_3D('',#59,#60,#61);
#63=CONICAL_SURFACE('',#62,2.965,44.999999949);
#64=CARTESIAN_POINT('',(-2.975,0.,-57.99));
#65=VERTEX_POINT('',#64);
#66=CARTESIAN_POINT('',(-2.965,0.,-58.));
#67=VERTEX_POINT('',#66);
#68=CARTESIAN_POINT('',(-2.975,0.,-57.99));
#69=DIRECTION('',(0.707106781,-0.,-0.707106782));
#70=VECTOR('',#69,0.014142136);
#71=LINE('',#68,#70);
#72=EDGE_CURVE('',#65,#67,#71,.T.);
#73=ORIENTED_EDGE('',*,*,#72,.T.);
#74=CARTESIAN_POINT('',(2.965,-0.,-58.));
#75=VERTEX_POINT('',#74);
#76=CARTESIAN_POINT('',(-0.,0.,-58.));
#77=DIRECTION('',(0.,0.,1.));
#78=DIRECTION('',(1.,0.,-0.));
#79=AXIS2_PLACEMENT_3D('',#76,#77,#78);
#80=CIRCLE('',#79,2.965);
#81=EDGE_CURVE('',#67,#75,#80,.T.);
#82=ORIENTED_EDGE('',*,*,#81,.T.);
#83=CARTESIAN_POINT('',(2.975,-0.,-57.99));
#84=VERTEX_POINT('',#83);
#85=CARTESIAN_POINT('',(2.975,0.,-57.99));
#86=DIRECTION('',(-0.707106781,0.,-0.707106782));
#87=VECTOR('',#86,0.014142136);
#88=LINE('',#85,#87);
#89=EDGE_CURVE('',#84,#75,#88,.T.);
#90=ORIENTED_EDGE('',*,*,#89,.F.);
#91=CARTESIAN_POINT('',(0.,0.,-57.99));
#92=DIRECTION('',(0.,0.,1.));
#93=DIRECTION('',(1.,0.,-0.));
#94=AXIS2_PLACEMENT_3D('',#91,#92,#93);
#95=CIRCLE('',#94,2.975);
#96=EDGE_CURVE('',#65,#84,#95,.T.);
#97=ORIENTED_EDGE('',*,*,#96,.F.);
#98=EDGE_LOOP('',(#73,#82,#90,#97));
#99=FACE_BOUND('',#98,.T.);
#100=ADVANCED_FACE('',(#99),#63,.T.);
#101=CARTESIAN_POINT('',(0.,0.,-54.149942363));
#102=DIRECTION('',(0.,0.,-1.));
#103=DIRECTION('',(-1.,0.,-0.));
#104=AXIS2_PLACEMENT_3D('',#101,#102,#103);
#105=CONICAL_SURFACE('',#104,2.25,59.499999929);
#106=CARTESIAN_POINT('',(2.974999999,0.000000003,-54.577));
#107=VERTEX_POINT('',#106);
#108=CARTESIAN_POINT('',(2.25,-0.,-54.149942363));
#109=VERTEX_POINT('',#108);
#110=CARTESIAN_POINT('',(2.974999999,0.,-54.577));
#111=DIRECTION('',(-0.86162916,-0.,0.507538364));
#112=VECTOR('',#111,0.841429274);
#113=LINE('',#110,#112);
#114=EDGE_CURVE('',#107,#109,#113,.T.);
#115=ORIENTED_EDGE('',*,*,#114,.T.);
#116=CARTESIAN_POINT('',(-2.25,-0.,-54.149942363));
#117=VERTEX_POINT('',#116);
#118=CARTESIAN_POINT('',(-0.,0.,-54.149942363));
#119=DIRECTION('',(0.,0.,1.));
#120=DIRECTION('',(1.,0.,-0.));
#121=AXIS2_PLACEMENT_3D('',#118,#119,#120);
#122=CIRCLE('',#121,2.25);
#123=EDGE_CURVE('',#117,#109,#122,.T.);
#124=ORIENTED_EDGE('',*,*,#123,.F.);
#125=CARTESIAN_POINT('',(-2.974999999,0.,-54.577));
#126=VERTEX_POINT('',#125);
#127=CARTESIAN_POINT('',(-2.974999999,0.,-54.577));
#128=DIRECTION('',(0.86162916,0.,0.507538364));
#129=VECTOR('',#128,0.841429274);
#130=LINE('',#127,#129);
#131=EDGE_CURVE('',#126,#117,#130,.T.);
#132=ORIENTED_EDGE('',*,*,#131,.F.);
#133=CARTESIAN_POINT('',(-0.,0.,-54.577));
#134=DIRECTION('',(0.,0.,1.));
#135=DIRECTION('',(1.,0.,-0.));
#136=AXIS2_PLACEMENT_3D('',#133,#134,#135);
#137=CIRCLE('',#136,2.975);
#138=EDGE_CURVE('',#126,#107,#137,.T.);
#139=ORIENTED_EDGE('',*,*,#138,.T.);
#140=EDGE_LOOP('',(#115,#124,#132,#139));
#141=FACE_BOUND('',#140,.T.);
#142=ADVANCED_FACE('',(#141),#105,.T.);
#143=CARTESIAN_POINT('',(0.,0.,-0.));
#144=DIRECTION('',(0.,0.,-1.));
#145=DIRECTION('',(1.,0.,0.));
#146=AXIS2_PLACEMENT_3D('',#143,#144,#145);
#147=CYLINDRICAL_SURFACE('',#146,2.975);
#148=CARTESIAN_POINT('',(-2.975,-0.,-57.99));
#149=DIRECTION('',(-0.,-0.,1.));
#150=VECTOR('',#149,3.413);
#151=LINE('',#148,#150);
#152=EDGE_CURVE('',#65,#126,#151,.T.);
#153=ORIENTED_EDGE('',*,*,#152,.T.);
#154=CARTESIAN_POINT('',(-0.,0.,-54.577));
#155=DIRECTION('',(0.,0.,1.));
#156=DIRECTION('',(1.,0.,-0.));
#157=AXIS2_PLACEMENT_3D('',#154,#155,#156);
#158=CIRCLE('',#157,2.975);
#159=EDGE_CURVE('',#107,#126,#158,.T.);
#160=ORIENTED_EDGE('',*,*,#159,.F.);
#161=CARTESIAN_POINT('',(2.975,0.,-57.99));
#162=DIRECTION('',(0.,-0.,1.));
#163=VECTOR('',#162,3.413);
#164=LINE('',#161,#163);
#165=EDGE_CURVE('',#84,#107,#164,.T.);
#166=ORIENTED_EDGE('',*,*,#165,.F.);
#167=CARTESIAN_POINT('',(0.,0.,-57.99));
#168=DIRECTION('',(0.,0.,1.));
#169=DIRECTION('',(1.,0.,-0.));
#170=AXIS2_PLACEMENT_3D('',#167,#168,#169);
#171=CIRCLE('',#170,2.975);
#172=EDGE_CURVE('',#84,#65,#171,.T.);
#173=ORIENTED_EDGE('',*,*,#172,.T.);
#174=EDGE_LOOP('',(#153,#160,#166,#173));
#175=FACE_BOUND('',#174,.T.);
#176=ADVANCED_FACE('',(#175),#147,.T.);
#177=CARTESIAN_POINT('',(0.,0.,-0.));
#178=DIRECTION('',(0.,0.,-1.));
#179=DIRECTION('',(1.,0.,0.));
#180=AXIS2_PLACEMENT_3D('',#177,#178,#179);
#181=CYLINDRICAL_SURFACE('',#180,2.25);
#182=CARTESIAN_POINT('',(-2.25,-0.,-53.772942363));
#183=VERTEX_POINT('',#182);
#184=CARTESIAN_POINT('',(-2.25,-0.,-54.149942363));
#185=DIRECTION('',(-0.,-0.,1.));
#186=VECTOR('',#185,0.377);
#187=LINE('',#184,#186);
#188=EDGE_CURVE('',#117,#183,#187,.T.);
#189=ORIENTED_EDGE('',*,*,#188,.T.);
#190=CARTESIAN_POINT('',(2.25,0.,-53.772942363));
#191=VERTEX_POINT('',#190);
#192=CARTESIAN_POINT('',(0.,0.,-53.772942363));
#193=DIRECTION('',(0.,0.,-1.));
#194=DIRECTION('',(1.,0.,0.));
#195=AXIS2_PLACEMENT_3D('',#192,#193,#194);
#196=CIRCLE('',#195,2.25);
#197=EDGE_CURVE('',#183,#191,#196,.T.);
#198=ORIENTED_EDGE('',*,*,#197,.T.);
#199=CARTESIAN_POINT('',(2.25,0.,-54.149942363));
#200=DIRECTION('',(0.,-0.,1.));
#201=VECTOR('',#200,0.377);
#202=LINE('',#199,#201);
#203=EDGE_CURVE('',#109,#191,#202,.T.);
#204=ORIENTED_EDGE('',*,*,#203,.F.);
#205=CARTESIAN_POINT('',(-0.,0.,-54.149942363));
#206=DIRECTION('',(0.,0.,1.));
#207=DIRECTION('',(1.,0.,-0.));
#208=AXIS2_PLACEMENT_3D('',#205,#206,#207);
#209=CIRCLE('',#208,2.25);
#210=EDGE_CURVE('',#109,#117,#209,.T.);
#211=ORIENTED_EDGE('',*,*,#210,.T.);
#212=EDGE_LOOP('',(#189,#198,#204,#211));
#213=FACE_BOUND('',#212,.T.);
#214=ADVANCED_FACE('',(#213),#181,.T.);
#215=CARTESIAN_POINT('',(0.,2.965,-58.));
#216=DIRECTION('',(0.,0.,-1.));
#217=DIRECTION('',(0.,-1.,0.));
#218=AXIS2_PLACEMENT_3D('',#215,#216,#217);
#219=PLANE('',#218);
#220=ORIENTED_EDGE('',*,*,#81,.F.);
#221=CARTESIAN_POINT('',(-0.,0.,-58.));
#222=DIRECTION('',(0.,0.,1.));
#223=DIRECTION('',(1.,0.,-0.));
#224=AXIS2_PLACEMENT_3D('',#221,#222,#223);
#225=CIRCLE('',#224,2.965);
#226=EDGE_CURVE('',#75,#67,#225,.T.);
#227=ORIENTED_EDGE('',*,*,#226,.F.);
#228=EDGE_LOOP('',(#220,#227));
#229=FACE_BOUND('',#228,.T.);
#230=ADVANCED_FACE('',(#229),#219,.T.);
#231=CARTESIAN_POINT('',(0.,0.,-53.772942363));
#232=DIRECTION('',(0.,0.,1.));
#233=DIRECTION('',(1.,0.,0.));
#234=AXIS2_PLACEMENT_3D('',#231,#232,#233);
#235=PLANE('',#234);
#236=ORIENTED_EDGE('',*,*,#197,.F.);
#237=CARTESIAN_POINT('',(0.,0.,-53.772942363));
#238=DIRECTION('',(0.,0.,-1.));
#239=DIRECTION('',(1.,0.,0.));
#240=AXIS2_PLACEMENT_3D('',#237,#238,#239);
#241=CIRCLE('',#240,2.25);
#242=EDGE_CURVE('',#191,#183,#241,.T.);
#243=ORIENTED_EDGE('',*,*,#242,.F.);
#244=EDGE_LOOP('',(#236,#243));
#245=FACE_BOUND('',#244,.T.);
#246=ADVANCED_FACE('',(#245),#235,.T.);
#247=CARTESIAN_POINT('',(0.,0.,-58.));
#248=DIRECTION('',(0.,0.,1.));
#249=DIRECTION('',(1.,0.,-0.));
#250=AXIS2_PLACEMENT_3D('',#247,#248,#249);
#251=CONICAL_SURFACE('',#250,2.965,44.999999949);
#252=ORIENTED_EDGE('',*,*,#72,.F.);
#253=ORIENTED_EDGE('',*,*,#172,.F.);
#254=ORIENTED_EDGE('',*,*,#89,.T.);
#255=ORIENTED_EDGE('',*,*,#226,.T.);
#256=EDGE_LOOP('',(#252,#253,#254,#255));
#257=FACE_BOUND('',#256,.T.);
#258=ADVANCED_FACE('',(#257),#251,.T.);
#259=CARTESIAN_POINT('',(0.,0.,-54.149942363));
#260=DIRECTION('',(0.,0.,-1.));
#261=DIRECTION('',(-1.,0.,-0.));
#262=AXIS2_PLACEMENT_3D('',#259,#260,#261);
#263=CONICAL_SURFACE('',#262,2.25,59.499999929);
#264=ORIENTED_EDGE('',*,*,#114,.F.);
#265=ORIENTED_EDGE('',*,*,#159,.T.);
#266=ORIENTED_EDGE('',*,*,#131,.T.);
#267=ORIENTED_EDGE('',*,*,#210,.F.);
#268=EDGE_LOOP('',(#264,#265,#266,#267));
#269=FACE_BOUND('',#268,.T.);
#270=ADVANCED_FACE('',(#269),#263,.T.);
#271=CARTESIAN_POINT('',(0.,0.,-0.));
#272=DIRECTION('',(0.,0.,-1.));
#273=DIRECTION('',(1.,0.,0.));
#274=AXIS2_PLACEMENT_3D('',#271,#272,#273);
#275=CYLINDRICAL_SURFACE('',#274,2.975);
#276=ORIENTED_EDGE('',*,*,#152,.F.);
#277=ORIENTED_EDGE('',*,*,#96,.T.);
#278=ORIENTED_EDGE('',*,*,#165,.T.);
#279=ORIENTED_EDGE('',*,*,#138,.F.);
#280=EDGE_LOOP('',(#276,#277,#278,#279));
#281=FACE_BOUND('',#280,.T.);
#282=ADVANCED_FACE('',(#281),#275,.T.);
#283=CARTESIAN_POINT('',(0.,0.,-0.));
#284=DIRECTION('',(0.,0.,-1.));
#285=DIRECTION('',(1.,0.,0.));
#286=AXIS2_PLACEMENT_3D('',#283,#284,#285);
#287=CYLINDRICAL_SURFACE('',#286,2.25);
#288=ORIENTED_EDGE('',*,*,#188,.F.);
#289=ORIENTED_EDGE('',*,*,#123,.T.);
#290=ORIENTED_EDGE('',*,*,#203,.T.);
#291=ORIENTED_EDGE('',*,*,#242,.T.);
#292=EDGE_LOOP('',(#288,#289,#290,#291));
#293=FACE_BOUND('',#292,.T.);
#294=ADVANCED_FACE('',(#293),#287,.T.);
#295=CLOSED_SHELL('',(#100,#142,#176,#214,#230,#246,#258,#270,#282,#294));
#296=MANIFOLD_SOLID_BREP('1',#295);
#297=COLOUR_RGB('',0.800000012,0.800000012,0.800000012);
#298=FILL_AREA_STYLE_COLOUR('',#297);
#299=FILL_AREA_STYLE('',(#298));
#300=SURFACE_STYLE_FILL_AREA(#299);
#301=SURFACE_SIDE_STYLE('',(#300));
#302=SURFACE_STYLE_USAGE(.BOTH.,#301);
#303=PRESENTATION_STYLE_ASSIGNMENT((#302));
#58=STYLED_ITEM('',(#303),#296);
#304=INTEGER_REPRESENTATION_ITEM('ATTRIB_BOUNDING_BOX_ALGORITHM',3);
#305=ID_ATTRIBUTE('SA #306',#306);
#306=SHAPE_ASPECT('properties','',#46,.F.);
#307=GEOMETRIC_ITEM_SPECIFIC_USAGE('','properties',#306,#40,#296);
#308=PROPERTY_DEFINITION('ATTRIB_BOUNDING_BOX_ALGORITHM','',#306);
#309=REPRESENTATION('',(#304),#33);
#310=PROPERTY_DEFINITION_REPRESENTATION(#308,#309);
#311=GENERAL_PROPERTY('','ATTRIB_BOUNDING_BOX_ALGORITHM','');
#312=GENERAL_PROPERTY_ASSOCIATION('','',#311,#308);
#39=SHAPE_REPRESENTATION('4226 8.000_PART2',(#38),#33);
#40=ADVANCED_BREP_SHAPE_REPRESENTATION('4226 8.000_PART2',(#296),#33);
#320=SHAPE_REPRESENTATION_RELATIONSHIP('','',#39,#40);
#321=CARTESIAN_POINT('',(0.,0.,0.));
#322=DIRECTION('',(0.,0.,1.));
#323=DIRECTION('',(1.,0.,0.));
#324=AXIS2_PLACEMENT_3D('',#321,#322,#323);
#326=MAPPED_ITEM('',#325,#324);
#325=REPRESENTATION_MAP(#324,#39);
#327=APPLICATION_CONTEXT('Managed model based 3d engineering');
#328=APPLICATION_PROTOCOL_DEFINITION('international standard','ap242_managed_model_based_3d_engineering',2013,#327);
#329=PRODUCT_CONTEXT('',#327,'mechanical');
#330=PRODUCT_DEFINITION_CONTEXT('part definition',#327,'design');
#47=PRODUCT('4226 8.000_PART2','4226 8.000_PART2','',(#329));
#331=PRODUCT_RELATED_PRODUCT_CATEGORY('part','',(#47));
#332=PRODUCT_DEFINITION_FORMATION_WITH_SPECIFIED_SOURCE('','',#47,.NOT_KNOWN.);
#48=PRODUCT_DEFINITION('design','',#332,#330);
#46=PRODUCT_DEFINITION_SHAPE('','',#48);
#333=SHAPE_DEFINITION_REPRESENTATION(#46,#39);
#34=DRAUGHTING_MODEL('',(#326),#33);
#334=(NAMED_UNIT(*)PLANE_ANGLE_UNIT()SI_UNIT($,.RADIAN.));
#335=PLANE_ANGLE_MEASURE_WITH_UNIT(PLANE_ANGLE_MEASURE(0.0174532925),#334);
#336=(CONVERSION_BASED_UNIT('DEGREE',#335)NAMED_UNIT(#337)PLANE_ANGLE_UNIT());
#337=DIMENSIONAL_EXPONENTS(0.,0.,0.,0.,0.,0.,0.);
#338=(NAMED_UNIT(*)SI_UNIT($,.STERADIAN.)SOLID_ANGLE_UNIT());
#339=(LENGTH_UNIT()NAMED_UNIT(*)SI_UNIT(.MILLI.,.METRE.));
#340=UNCERTAINTY_MEASURE_WITH_UNIT(LENGTH_MEASURE(1.000000E-06),#339,'DISTANCE_ACCURACY_VALUE','Maximum Tolerance applied to model');
#341=(GEOMETRIC_REPRESENTATION_CONTEXT(3)GLOBAL_UNCERTAINTY_ASSIGNED_CONTEXT((#340))GLOBAL_UNIT_ASSIGNED_CONTEXT((#339,#336,#338))REPRESENTATION_CONTEXT('','4226 8.000_PART1'));
#343=CARTESIAN_POINT('',(0.,0.,0.));
#344=DIRECTION('',(0.,0.,1.));
#345=DIRECTION('',(1.,0.,0.));
#346=AXIS2_PLACEMENT_3D('',#343,#344,#345);
#357=CARTESIAN_POINT('',(0.,0.,0.));
#358=DIRECTION('',(0.,0.,1.));
#359=DIRECTION('',(1.,0.,-0.));
#360=AXIS2_PLACEMENT_3D('',#357,#358,#359);
#361=ITEM_DEFINED_TRANSFORMATION('','',#360,#346);
#362=(REPRESENTATION_RELATIONSHIP('','',#347,#16)REPRESENTATION_RELATIONSHIP_WITH_TRANSFORMATION(#361)SHAPE_REPRESENTATION_RELATIONSHIP());
#363=NEXT_ASSEMBLY_USAGE_OCCURRENCE('4226 8.000_PART1_2','4226 8.000_PART1','4226 8.000_PART1',#25,#356,$);
#364=PRODUCT_DEFINITION_SHAPE('','',#363);
#365=CONTEXT_DEPENDENT_SHAPE_REPRESENTATION(#362,#364);
#367=CARTESIAN_POINT('',(0.,0.,-0.));
#368=DIRECTION('',(0.,0.,-1.));
#369=DIRECTION('',(1.,0.,0.));
#370=AXIS2_PLACEMENT_3D('',#367,#368,#369);
#371=CYLINDRICAL_SURFACE('',#370,2.501);
#372=CARTESIAN_POINT('',(-2.501,0.,-0.0101));
#373=VERTEX_POINT('',#372);
#374=CARTESIAN_POINT('',(-2.501,0.,-0.001));
#375=VERTEX_POINT('',#374);
#376=CARTESIAN_POINT('',(-2.501,-0.,-0.011009999));
#377=DIRECTION('',(-0.,-0.,1.));
#378=VECTOR('',#377,0.010919999);
#379=LINE('',#376,#378);
#380=EDGE_CURVE('',#373,#375,#379,.T.);
#381=ORIENTED_EDGE('',*,*,#380,.T.);
#382=CARTESIAN_POINT('',(2.501,-0.,-0.001));
#383=VERTEX_POINT('',#382);
#384=CARTESIAN_POINT('',(0.,0.,-0.001));
#385=DIRECTION('',(0.,-0.,1.));
#386=DIRECTION('',(1.,0.,0.));
#387=AXIS2_PLACEMENT_3D('',#384,#385,#386);
#388=CIRCLE('',#387,2.501);
#389=EDGE_CURVE('',#383,#375,#388,.T.);
#390=ORIENTED_EDGE('',*,*,#389,.F.);
#391=CARTESIAN_POINT('',(2.501,-0.,-0.010099999));
#392=VERTEX_POINT('',#391);
#393=CARTESIAN_POINT('',(2.501,0.,-0.01101));
#394=DIRECTION('',(0.,-0.,1.));
#395=VECTOR('',#394,0.01092);
#396=LINE('',#393,#395);
#397=EDGE_CURVE('',#392,#383,#396,.T.);
#398=ORIENTED_EDGE('',*,*,#397,.F.);
#399=CARTESIAN_POINT('',(0.,0.,-0.010099999));
#400=DIRECTION('',(0.,-0.,1.));
#401=DIRECTION('',(1.,0.,0.));
#402=AXIS2_PLACEMENT_3D('',#399,#400,#401);
#403=CIRCLE('',#402,2.501);
#404=EDGE_CURVE('',#392,#373,#403,.T.);
#405=ORIENTED_EDGE('',*,*,#404,.T.);
#406=EDGE_LOOP('',(#381,#390,#398,#405));
#407=FACE_BOUND('',#406,.T.);
#408=ADVANCED_FACE('',(#407),#371,.T.);
#409=CARTESIAN_POINT('',(0.,0.,-53.772942363));
#410=DIRECTION('',(0.,0.,1.));
#411=DIRECTION('',(1.,0.,0.));
#412=AXIS2_PLACEMENT_3D('',#409,#410,#411);
#413=PLANE('',#412);
#414=CARTESIAN_POINT('',(2.25,0.,-53.772942363));
#415=VERTEX_POINT('',#414);
#416=CARTESIAN_POINT('',(-2.25,0.,-53.772942363));
#417=VERTEX_POINT('',#416);
#418=CARTESIAN_POINT('',(0.,0.,-53.772942363));
#419=DIRECTION('',(-0.,-0.,-1.));
#420=DIRECTION('',(1.,0.,-0.));
#421=AXIS2_PLACEMENT_3D('',#418,#419,#420);
#422=CIRCLE('',#421,2.25);
#423=EDGE_CURVE('',#415,#417,#422,.T.);
#424=ORIENTED_EDGE('',*,*,#423,.T.);
#425=CARTESIAN_POINT('',(0.,0.,-53.772942363));
#426=DIRECTION('',(-0.,-0.,-1.));
#427=DIRECTION('',(1.,0.,-0.));
#428=AXIS2_PLACEMENT_3D('',#425,#426,#427);
#429=CIRCLE('',#428,2.25);
#430=EDGE_CURVE('',#417,#415,#429,.T.);
#431=ORIENTED_EDGE('',*,*,#430,.T.);
#432=EDGE_LOOP('',(#424,#431));
#433=FACE_BOUND('',#432,.T.);
#434=ADVANCED_FACE('',(#433),#413,.F.);
#435=CARTESIAN_POINT('',(0.,0.,-0.001));
#436=DIRECTION('',(-0.,0.,-1.));
#437=DIRECTION('',(-1.,0.,0.));
#438=AXIS2_PLACEMENT_3D('',#435,#436,#437);
#439=CONICAL_SURFACE('',#438,2.501,44.999999949);
#440=CARTESIAN_POINT('',(2.5,-0.,-0.));
#441=VERTEX_POINT('',#440);
#442=CARTESIAN_POINT('',(2.5011,0.,-0.0011));
#443=DIRECTION('',(-0.707106781,-0.,0.707106782));
#444=VECTOR('',#443,0.001555635);
#445=LINE('',#442,#444);
#446=EDGE_CURVE('',#383,#441,#445,.T.);
#447=ORIENTED_EDGE('',*,*,#446,.T.);
#448=CARTESIAN_POINT('',(-2.5,0.,-0.));
#449=VERTEX_POINT('',#448);
#450=CARTESIAN_POINT('',(0.,0.,-0.));
#451=DIRECTION('',(0.,-0.,1.));
#452=DIRECTION('',(-1.,0.,0.));
#453=AXIS2_PLACEMENT_3D('',#450,#451,#452);
#454=CIRCLE('',#453,2.5);
#455=EDGE_CURVE('',#449,#441,#454,.T.);
#456=ORIENTED_EDGE('',*,*,#455,.F.);
#457=CARTESIAN_POINT('',(-2.501,0.,-0.001));
#458=DIRECTION('',(0.707106781,0.,0.707106782));
#459=VECTOR('',#458,0.001555635);
#460=LINE('',#457,#459);
#461=EDGE_CURVE('',#375,#449,#460,.T.);
#462=ORIENTED_EDGE('',*,*,#461,.F.);
#463=CARTESIAN_POINT('',(0.,0.,-0.001));
#464=DIRECTION('',(0.,-0.,1.));
#465=DIRECTION('',(1.,0.,0.));
#466=AXIS2_PLACEMENT_3D('',#463,#464,#465);
#467=CIRCLE('',#466,2.501);
#468=EDGE_CURVE('',#375,#383,#467,.T.);
#469=ORIENTED_EDGE('',*,*,#468,.T.);
#470=EDGE_LOOP('',(#447,#456,#462,#469));
#471=FACE_BOUND('',#470,.T.);
#472=ADVANCED_FACE('',(#471),#439,.T.);
#473=CARTESIAN_POINT('',(0.,2.5,-0.));
#474=DIRECTION('',(0.,0.,-1.));
#475=DIRECTION('',(0.,-1.,0.));
#476=AXIS2_PLACEMENT_3D('',#473,#474,#475);
#477=PLANE('',#476);
#478=CARTESIAN_POINT('',(0.,0.,-0.));
#479=DIRECTION('',(0.,-0.,1.));
#480=DIRECTION('',(-1.,0.,0.));
#481=AXIS2_PLACEMENT_3D('',#478,#479,#480);
#482=CIRCLE('',#481,2.5);
#483=EDGE_CURVE('',#441,#449,#482,.T.);
#484=ORIENTED_EDGE('',*,*,#483,.T.);
#485=ORIENTED_EDGE('',*,*,#455,.T.);
#486=EDGE_LOOP('',(#484,#485));
#487=FACE_BOUND('',#486,.T.);
#488=ADVANCED_FACE('',(#487),#477,.F.);
#489=CARTESIAN_POINT('',(0.,0.,-0.5091));
#490=DIRECTION('',(-0.,0.,-1.));
#491=DIRECTION('',(-1.,0.,0.));
#492=AXIS2_PLACEMENT_3D('',#489,#490,#491);
#493=CONICAL_SURFACE('',#492,3.,44.999999949);
#494=CARTESIAN_POINT('',(3.,-0.,-0.5091));
#495=VERTEX_POINT('',#494);
#496=CARTESIAN_POINT('',(3.,0.,-0.5091));
#497=DIRECTION('',(-0.707106781,-0.,0.707106782));
#498=VECTOR('',#497,0.705692568);
#499=LINE('',#496,#498);
#500=EDGE_CURVE('',#495,#392,#499,.T.);
#501=ORIENTED_EDGE('',*,*,#500,.T.);
#502=CARTESIAN_POINT('',(0.,0.,-0.010099999));
#503=DIRECTION('',(0.,-0.,1.));
#504=DIRECTION('',(1.,0.,0.));
#505=AXIS2_PLACEMENT_3D('',#502,#503,#504);
#506=CIRCLE('',#505,2.501);
#507=EDGE_CURVE('',#373,#392,#506,.T.);
#508=ORIENTED_EDGE('',*,*,#507,.F.);
#509=CARTESIAN_POINT('',(-3.,0.,-0.5091));
#510=VERTEX_POINT('',#509);
#511=CARTESIAN_POINT('',(-3.,0.,-0.5091));
#512=DIRECTION('',(0.707106781,0.,0.707106782));
#513=VECTOR('',#512,0.705692568);
#514=LINE('',#511,#513);
#515=EDGE_CURVE('',#510,#373,#514,.T.);
#516=ORIENTED_EDGE('',*,*,#515,.F.);
#517=CARTESIAN_POINT('',(0.,0.,-0.5091));
#518=DIRECTION('',(-0.,-0.,1.));
#519=DIRECTION('',(1.,0.,0.));
#520=AXIS2_PLACEMENT_3D('',#517,#518,#519);
#521=CIRCLE('',#520,3.);
#522=EDGE_CURVE('',#510,#495,#521,.T.);
#523=ORIENTED_EDGE('',*,*,#522,.T.);
#524=EDGE_LOOP('',(#501,#508,#516,#523));
#525=FACE_BOUND('',#524,.T.);
#526=ADVANCED_FACE('',(#525),#493,.T.);
#527=CARTESIAN_POINT('',(0.,0.,-0.));
#528=DIRECTION('',(0.,0.,-1.));
#529=DIRECTION('',(1.,0.,0.));
#530=AXIS2_PLACEMENT_3D('',#527,#528,#529);
#531=CYLINDRICAL_SURFACE('',#530,3.);
#532=CARTESIAN_POINT('',(-3.,-0.,-32.799904257));
#533=VERTEX_POINT('',#532);
#534=CARTESIAN_POINT('',(-3.,-0.,-32.799904257));
#535=DIRECTION('',(-0.,-0.,1.));
#536=VECTOR('',#535,32.290804257);
#537=LINE('',#534,#536);
#538=EDGE_CURVE('',#533,#510,#537,.T.);
#539=ORIENTED_EDGE('',*,*,#538,.T.);
#540=CARTESIAN_POINT('',(0.,0.,-0.5091));
#541=DIRECTION('',(-0.,-0.,1.));
#542=DIRECTION('',(1.,0.,0.));
#543=AXIS2_PLACEMENT_3D('',#540,#541,#542);
#544=CIRCLE('',#543,3.);
#545=EDGE_CURVE('',#495,#510,#544,.T.);
#546=ORIENTED_EDGE('',*,*,#545,.F.);
#547=CARTESIAN_POINT('',(3.,-0.,-32.799904257));
#548=VERTEX_POINT('',#547);
#549=CARTESIAN_POINT('',(3.,0.,-32.799904257));
#550=DIRECTION('',(0.,-0.,1.));
#551=VECTOR('',#550,32.290804257);
#552=LINE('',#549,#551);
#553=EDGE_CURVE('',#548,#495,#552,.T.);
#554=ORIENTED_EDGE('',*,*,#553,.F.);
#555=CARTESIAN_POINT('',(0.,0.,-32.799904257));
#556=DIRECTION('',(-0.,-0.,1.));
#557=DIRECTION('',(1.,0.,0.));
#558=AXIS2_PLACEMENT_3D('',#555,#556,#557);
#559=CIRCLE('',#558,3.);
#560=EDGE_CURVE('',#548,#533,#559,.T.);
#561=ORIENTED_EDGE('',*,*,#560,.T.);
#562=EDGE_LOOP('',(#539,#546,#554,#561));
#563=FACE_BOUND('',#562,.T.);
#564=ADVANCED_FACE('',(#563),#531,.T.);
#565=CARTESIAN_POINT('',(0.,0.,-32.799904257));
#566=DIRECTION('',(-0.,0.,1.));
#567=DIRECTION('',(1.,0.,0.));
#568=AXIS2_PLACEMENT_3D('',#565,#566,#567);
#569=CONICAL_SURFACE('',#568,3.,29.999999966);
#570=CARTESIAN_POINT('',(-2.25,0.,-34.098942365));
#571=VERTEX_POINT('',#570);
#572=CARTESIAN_POINT('',(-3.,0.,-32.799904257));
#573=DIRECTION('',(0.499999999,-0.,-0.866025404));
#574=VECTOR('',#573,1.500000002);
#575=LINE('',#572,#574);
#576=EDGE_CURVE('',#533,#571,#575,.T.);
#577=ORIENTED_EDGE('',*,*,#576,.T.);
#578=CARTESIAN_POINT('',(2.25,-0.,-34.098942363));
#579=VERTEX_POINT('',#578);
#580=CARTESIAN_POINT('',(0.,0.,-34.098942365));
#581=DIRECTION('',(0.,-0.,1.));
#582=DIRECTION('',(1.,0.,0.));
#583=AXIS2_PLACEMENT_3D('',#580,#581,#582);
#584=CIRCLE('',#583,2.25);
#585=EDGE_CURVE('',#571,#579,#584,.T.);
#586=ORIENTED_EDGE('',*,*,#585,.T.);
#587=CARTESIAN_POINT('',(3.,0.,-32.799904257));
#588=DIRECTION('',(-0.499999999,0.,-0.866025404));
#589=VECTOR('',#588,1.5);
#590=LINE('',#587,#589);
#591=EDGE_CURVE('',#548,#579,#590,.T.);
#592=ORIENTED_EDGE('',*,*,#591,.F.);
#593=CARTESIAN_POINT('',(0.,0.,-32.799904257));
#594=DIRECTION('',(-0.,-0.,1.));
#595=DIRECTION('',(1.,0.,0.));
#596=AXIS2_PLACEMENT_3D('',#593,#594,#595);
#597=CIRCLE('',#596,3.);
#598=EDGE_CURVE('',#533,#548,#597,.T.);
#599=ORIENTED_EDGE('',*,*,#598,.F.);
#600=EDGE_LOOP('',(#577,#586,#592,#599));
#601=FACE_BOUND('',#600,.T.);
#602=ADVANCED_FACE('',(#601),#569,.T.);
#603=CARTESIAN_POINT('',(0.,0.,-0.));
#604=DIRECTION('',(0.,0.,-1.));
#605=DIRECTION('',(1.,0.,0.));
#606=AXIS2_PLACEMENT_3D('',#603,#604,#605);
#607=CYLINDRICAL_SURFACE('',#606,2.25);
#608=CARTESIAN_POINT('',(-2.25,-0.,-53.772942363));
#609=DIRECTION('',(-0.,-0.,1.));
#610=VECTOR('',#609,19.673999998);
#611=LINE('',#608,#610);
#612=EDGE_CURVE('',#417,#571,#611,.T.);
#613=ORIENTED_EDGE('',*,*,#612,.T.);
#614=CARTESIAN_POINT('',(0.,0.,-34.098942365));
#615=DIRECTION('',(0.,-0.,1.));
#616=DIRECTION('',(1.,0.,0.));
#617=AXIS2_PLACEMENT_3D('',#614,#615,#616);
#618=CIRCLE('',#617,2.25);
#619=EDGE_CURVE('',#579,#571,#618,.T.);
#620=ORIENTED_EDGE('',*,*,#619,.F.);
#621=CARTESIAN_POINT('',(2.25,0.,-53.772942363));
#622=DIRECTION('',(0.,-0.,1.));
#623=VECTOR('',#622,19.674);
#624=LINE('',#621,#623);
#625=EDGE_CURVE('',#415,#579,#624,.T.);
#626=ORIENTED_EDGE('',*,*,#625,.F.);
#627=ORIENTED_EDGE('',*,*,#430,.F.);
#628=EDGE_LOOP('',(#613,#620,#626,#627));
#629=FACE_BOUND('',#628,.T.);
#630=ADVANCED_FACE('',(#629),#607,.T.);
#631=CARTESIAN_POINT('',(0.,0.,-0.));
#632=DIRECTION('',(0.,0.,-1.));
#633=DIRECTION('',(1.,0.,0.));
#634=AXIS2_PLACEMENT_3D('',#631,#632,#633);
#635=CYLINDRICAL_SURFACE('',#634,2.501);
#636=ORIENTED_EDGE('',*,*,#380,.F.);
#637=ORIENTED_EDGE('',*,*,#507,.T.);
#638=ORIENTED_EDGE('',*,*,#397,.T.);
#639=ORIENTED_EDGE('',*,*,#468,.F.);
#640=EDGE_LOOP('',(#636,#637,#638,#639));
#641=FACE_BOUND('',#640,.T.);
#642=ADVANCED_FACE('',(#641),#635,.T.);
#643=CARTESIAN_POINT('',(0.,0.,-0.001));
#644=DIRECTION('',(-0.,0.,-1.));
#645=DIRECTION('',(-1.,0.,0.));
#646=AXIS2_PLACEMENT_3D('',#643,#644,#645);
#647=CONICAL_SURFACE('',#646,2.501,44.999999949);
#648=ORIENTED_EDGE('',*,*,#446,.F.);
#649=ORIENTED_EDGE('',*,*,#389,.T.);
#650=ORIENTED_EDGE('',*,*,#461,.T.);
#651=ORIENTED_EDGE('',*,*,#483,.F.);
#652=EDGE_LOOP('',(#648,#649,#650,#651));
#653=FACE_BOUND('',#652,.T.);
#654=ADVANCED_FACE('',(#653),#647,.T.);
#655=CARTESIAN_POINT('',(0.,0.,-0.5091));
#656=DIRECTION('',(-0.,0.,-1.));
#657=DIRECTION('',(-1.,0.,0.));
#658=AXIS2_PLACEMENT_3D('',#655,#656,#657);
#659=CONICAL_SURFACE('',#658,3.,44.999999949);
#660=ORIENTED_EDGE('',*,*,#500,.F.);
#661=ORIENTED_EDGE('',*,*,#545,.T.);
#662=ORIENTED_EDGE('',*,*,#515,.T.);
#663=ORIENTED_EDGE('',*,*,#404,.F.);
#664=EDGE_LOOP('',(#660,#661,#662,#663));
#665=FACE_BOUND('',#664,.T.);
#666=ADVANCED_FACE('',(#665),#659,.T.);
#667=CARTESIAN_POINT('',(0.,0.,-0.));
#668=DIRECTION('',(0.,0.,-1.));
#669=DIRECTION('',(1.,0.,0.));
#670=AXIS2_PLACEMENT_3D('',#667,#668,#669);
#671=CYLINDRICAL_SURFACE('',#670,3.);
#672=ORIENTED_EDGE('',*,*,#538,.F.);
#673=ORIENTED_EDGE('',*,*,#598,.T.);
#674=ORIENTED_EDGE('',*,*,#553,.T.);
#675=ORIENTED_EDGE('',*,*,#522,.F.);
#676=EDGE_LOOP('',(#672,#673,#674,#675));
#677=FACE_BOUND('',#676,.T.);
#678=ADVANCED_FACE('',(#677),#671,.T.);
#679=CARTESIAN_POINT('',(0.,0.,-32.799904257));
#680=DIRECTION('',(-0.,0.,1.));
#681=DIRECTION('',(1.,0.,0.));
#682=AXIS2_PLACEMENT_3D('',#679,#680,#681);
#683=CONICAL_SURFACE('',#682,3.,29.999999966);
#684=ORIENTED_EDGE('',*,*,#576,.F.);
#685=ORIENTED_EDGE('',*,*,#560,.F.);
#686=ORIENTED_EDGE('',*,*,#591,.T.);
#687=ORIENTED_EDGE('',*,*,#619,.T.);
#688=EDGE_LOOP('',(#684,#685,#686,#687));
#689=FACE_BOUND('',#688,.T.);
#690=ADVANCED_FACE('',(#689),#683,.T.);
#691=CARTESIAN_POINT('',(0.,0.,-0.));
#692=DIRECTION('',(0.,0.,-1.));
#693=DIRECTION('',(1.,0.,0.));
#694=AXIS2_PLACEMENT_3D('',#691,#692,#693);
#695=CYLINDRICAL_SURFACE('',#694,2.25);
#696=ORIENTED_EDGE('',*,*,#612,.F.);
#697=ORIENTED_EDGE('',*,*,#423,.F.);
#698=ORIENTED_EDGE('',*,*,#625,.T.);
#699=ORIENTED_EDGE('',*,*,#585,.F.);
#700=EDGE_LOOP('',(#696,#697,#698,#699));
#701=FACE_BOUND('',#700,.T.);
#702=ADVANCED_FACE('',(#701),#695,.T.);
#703=CLOSED_SHELL('',(#408,#434,#472,#488,#526,#564,#602,#630,#642,#654,#666,#678,#690,#702));
#704=MANIFOLD_SOLID_BREP('1',#703);
#705=COLOUR_RGB('',0.498039216,0.498039216,0.498039216);
#706=FILL_AREA_STYLE_COLOUR('',#705);
#707=FILL_AREA_STYLE('',(#706));
#708=SURFACE_STYLE_FILL_AREA(#707);
#709=SURFACE_SIDE_STYLE('',(#708));
#710=SURFACE_STYLE_USAGE(.BOTH.,#709);
#711=PRESENTATION_STYLE_ASSIGNMENT((#710));
#366=STYLED_ITEM('',(#711),#704);
#712=INTEGER_REPRESENTATION_ITEM('ATTRIB_BOUNDING_BOX_ALGORITHM',3);
#713=ID_ATTRIBUTE('SA #714',#714);
#714=SHAPE_ASPECT('properties','',#354,.F.);
#715=GEOMETRIC_ITEM_SPECIFIC_USAGE('','properties',#714,#348,#704);
#716=PROPERTY_DEFINITION('ATTRIB_BOUNDING_BOX_ALGORITHM','',#714);
#717=REPRESENTATION('',(#712),#341);
#718=PROPERTY_DEFINITION_REPRESENTATION(#716,#717);
#719=GENERAL_PROPERTY('','ATTRIB_BOUNDING_BOX_ALGORITHM','');
#720=GENERAL_PROPERTY_ASSOCIATION('','',#719,#716);
#347=SHAPE_REPRESENTATION('4226 8.000_PART1',(#346),#341);
#348=ADVANCED_BREP_SHAPE_REPRESENTATION('4226 8.000_PART1',(#704),#341);
#728=SHAPE_REPRESENTATION_RELATIONSHIP('','',#347,#348);
#729=CARTESIAN_POINT('',(0.,0.,0.));
#730=DIRECTION('',(0.,0.,1.));
#731=DIRECTION('',(1.,0.,0.));
#732=AXIS2_PLACEMENT_3D('',#729,#730,#731);
#734=MAPPED_ITEM('',#733,#732);
#733=REPRESENTATION_MAP(#732,#347);
#355=PRODUCT('4226 8.000_PART1','4226 8.000_PART1','',(#329));
#735=PRODUCT_RELATED_PRODUCT_CATEGORY('part','',(#355));
#736=PRODUCT_DEFINITION_FORMATION_WITH_SPECIFIED_SOURCE('','',#355,.NOT_KNOWN.);
#356=PRODUCT_DEFINITION('design','',#736,#330);
#354=PRODUCT_DEFINITION_SHAPE('','',#356);
#737=SHAPE_DEFINITION_REPRESENTATION(#354,#347);
#342=DRAUGHTING_MODEL('',(#734),#341);
#16=SHAPE_REPRESENTATION('6152 M8x1,25 Micro-thread milling cutter, 9042260080000',(#15,#52,#360),#10);
#738=CARTESIAN_POINT('',(0.,0.,0.));
#739=DIRECTION('',(0.,0.,1.));
#740=DIRECTION('',(1.,0.,0.));
#741=AXIS2_PLACEMENT_3D('',#738,#739,#740);
#743=MAPPED_ITEM('',#742,#741);
#742=REPRESENTATION_MAP(#741,#16);
#24=PRODUCT('6152 M8x1,25 Micro-thread milling cutter, 9042260080000','6152 M8x1,25 Micro-thread milling cutter, 9042260080000','',(#329));
#744=PRODUCT_RELATED_PRODUCT_CATEGORY('part','',(#24));
#745=PRODUCT_DEFINITION_FORMATION_WITH_SPECIFIED_SOURCE('','',#24,.NOT_KNOWN.);
#25=PRODUCT_DEFINITION('design','',#745,#330);
#23=PRODUCT_DEFINITION_SHAPE('','',#25);
#746=SHAPE_DEFINITION_REPRESENTATION(#23,#16);
#11=DRAUGHTING_MODEL('',(#743),#10);
#1=MECHANICAL_DESIGN_GEOMETRIC_PRESENTATION_REPRESENTATION('',(#58,#366),#10);
ENDSEC;
END-ISO-10303-21;
