ISO-10303-21;
HEADER;
/* Generated by software containing ST-Developer
 * from STEP Tools, Inc. (www.steptools.com) 
 */

FILE_DESCRIPTION(
/* description */ ('Alibre Inc.'),
/* implementation_level */ '2;1');

FILE_NAME(
/* name */ 'export-A2AC8AC6-29FD-4713-A232-C134E82A811C',
/* time_stamp */ '2023-02-03T11:58:22+01:00',
/* author */ (''),
/* organization */ (''),
/* preprocessor_version */ 'ST-DEVELOPER v17',
/* originating_system */ 'Alibre',
/* authorisation */ '');

FILE_SCHEMA (('AUTOMOTIVE_DESIGN'));
ENDSEC;

DATA;
#10=STYLED_ITEM('NAME_0',(#18),#177);
#11=MECHANICAL_DESIGN_GEOMETRIC_PRESENTATION_REPRESENTATION('NAME_0',(#10),
#33);
#12=COLOUR_RGB('',1.,1.,1.);
#13=FILL_AREA_STYLE_COLOUR('NAME_0',#12);
#14=FILL_AREA_STYLE('NAME_0',(#13));
#15=SURFACE_STYLE_FILL_AREA(#14);
#16=SURFACE_SIDE_STYLE('NAME_0',(#15));
#17=SURFACE_STYLE_USAGE(.POSITIVE.,#16);
#18=PRESENTATION_STYLE_ASSIGNMENT((#17));
#19=PRODUCT_DEFINITION_CONTEXT('part definition',#26,'design');
#20=SHAPE_DEFINITION_REPRESENTATION(#21,#178);
#21=PRODUCT_DEFINITION_SHAPE('PRODUCT_VERSION_ID',
'PRODUCT_VERSION_DESCR',#22);
#22=PRODUCT_DEFINITION('PRODUCT_VERSION_ID','PRODUCT_VERSION_DESCR',#23,
#19);
#23=PRODUCT_DEFINITION_FORMATION_WITH_SPECIFIED_SOURCE(
'PRODUCT_VERSION_ID','PRODUCT_VERSION_DESCR',#28,.MADE.);
#24=PRODUCT_RELATED_PRODUCT_CATEGORY('part','part',(#28));
#25=APPLICATION_PROTOCOL_DEFINITION('Draft International Standard',
'automotive_design',1994,#26);
#26=APPLICATION_CONTEXT('automotive_Design');
#27=PRODUCT_CONTEXT('3D Mechanical Parts',#26,'mechanical');
#28=PRODUCT('',
'6246 Phoenix Contact US-EMLP (20X9) - 0828795 (WHITE) SINGLE LABEL','',
(#27));
#29=(
LENGTH_UNIT()
NAMED_UNIT(*)
SI_UNIT(.MILLI.,.METRE.)
);
#30=(
NAMED_UNIT(*)
PLANE_ANGLE_UNIT()
SI_UNIT($,.RADIAN.)
);
#31=(
NAMED_UNIT(*)
SI_UNIT($,.STERADIAN.)
SOLID_ANGLE_UNIT()
);
#32=UNCERTAINTY_MEASURE_WITH_UNIT(LENGTH_MEASURE(1.E-6),#29,
'DISTANCE_ACCURACY_VALUE',
'Maximum model space distance between geometric entities at asserted c
onnectivities');
#33=(
GEOMETRIC_REPRESENTATION_CONTEXT(3)
GLOBAL_UNCERTAINTY_ASSIGNED_CONTEXT((#32))
GLOBAL_UNIT_ASSIGNED_CONTEXT((#31,#30,#29))
REPRESENTATION_CONTEXT('ID1','3D')
);
#34=VERTEX_POINT('',#146);
#35=VERTEX_POINT('',#147);
#36=VERTEX_POINT('',#149);
#37=VERTEX_POINT('',#151);
#38=VERTEX_POINT('',#155);
#39=VERTEX_POINT('',#157);
#40=VERTEX_POINT('',#161);
#41=VERTEX_POINT('',#163);
#42=VECTOR('',#127,1.);
#43=VECTOR('',#128,1.);
#44=VECTOR('',#129,1.);
#45=VECTOR('',#130,1.);
#46=VECTOR('',#132,1.);
#47=VECTOR('',#133,1.);
#48=VECTOR('',#134,1.);
#49=VECTOR('',#136,1.);
#50=VECTOR('',#137,1.);
#51=VECTOR('',#138,1.);
#52=VECTOR('',#140,1.);
#53=VECTOR('',#141,1.);
#54=LINE('',#145,#42);
#55=LINE('',#148,#43);
#56=LINE('',#150,#44);
#57=LINE('',#152,#45);
#58=LINE('',#154,#46);
#59=LINE('',#156,#47);
#60=LINE('',#158,#48);
#61=LINE('',#160,#49);
#62=LINE('',#162,#50);
#63=LINE('',#164,#51);
#64=LINE('',#166,#52);
#65=LINE('',#167,#53);
#66=EDGE_CURVE('',#34,#35,#54,.T.);
#67=EDGE_CURVE('',#36,#35,#55,.T.);
#68=EDGE_CURVE('',#36,#37,#56,.T.);
#69=EDGE_CURVE('',#37,#34,#57,.T.);
#70=EDGE_CURVE('',#35,#38,#58,.T.);
#71=EDGE_CURVE('',#39,#38,#59,.T.);
#72=EDGE_CURVE('',#39,#36,#60,.T.);
#73=EDGE_CURVE('',#38,#40,#61,.T.);
#74=EDGE_CURVE('',#41,#40,#62,.T.);
#75=EDGE_CURVE('',#41,#39,#63,.T.);
#76=EDGE_CURVE('',#40,#34,#64,.T.);
#77=EDGE_CURVE('',#37,#41,#65,.T.);
#78=ORIENTED_EDGE('',*,*,#66,.T.);
#79=ORIENTED_EDGE('',*,*,#67,.F.);
#80=ORIENTED_EDGE('',*,*,#68,.T.);
#81=ORIENTED_EDGE('',*,*,#69,.T.);
#82=ORIENTED_EDGE('',*,*,#70,.T.);
#83=ORIENTED_EDGE('',*,*,#71,.F.);
#84=ORIENTED_EDGE('',*,*,#72,.T.);
#85=ORIENTED_EDGE('',*,*,#67,.T.);
#86=ORIENTED_EDGE('',*,*,#73,.T.);
#87=ORIENTED_EDGE('',*,*,#74,.F.);
#88=ORIENTED_EDGE('',*,*,#75,.T.);
#89=ORIENTED_EDGE('',*,*,#71,.T.);
#90=ORIENTED_EDGE('',*,*,#76,.T.);
#91=ORIENTED_EDGE('',*,*,#69,.F.);
#92=ORIENTED_EDGE('',*,*,#77,.T.);
#93=ORIENTED_EDGE('',*,*,#74,.T.);
#94=ORIENTED_EDGE('',*,*,#66,.F.);
#95=ORIENTED_EDGE('',*,*,#76,.F.);
#96=ORIENTED_EDGE('',*,*,#73,.F.);
#97=ORIENTED_EDGE('',*,*,#70,.F.);
#98=ORIENTED_EDGE('',*,*,#77,.F.);
#99=ORIENTED_EDGE('',*,*,#68,.F.);
#100=ORIENTED_EDGE('',*,*,#72,.F.);
#101=ORIENTED_EDGE('',*,*,#75,.F.);
#102=EDGE_LOOP('',(#78,#79,#80,#81));
#103=EDGE_LOOP('',(#82,#83,#84,#85));
#104=EDGE_LOOP('',(#86,#87,#88,#89));
#105=EDGE_LOOP('',(#90,#91,#92,#93));
#106=EDGE_LOOP('',(#94,#95,#96,#97));
#107=EDGE_LOOP('',(#98,#99,#100,#101));
#108=FACE_BOUND('',#102,.T.);
#109=FACE_BOUND('',#103,.T.);
#110=FACE_BOUND('',#104,.T.);
#111=FACE_BOUND('',#105,.T.);
#112=FACE_BOUND('',#106,.T.);
#113=FACE_BOUND('',#107,.T.);
#114=ADVANCED_FACE('',(#108),#170,.T.);
#115=ADVANCED_FACE('',(#109),#171,.T.);
#116=ADVANCED_FACE('',(#110),#172,.T.);
#117=ADVANCED_FACE('',(#111),#173,.T.);
#118=ADVANCED_FACE('',(#112),#174,.T.);
#119=ADVANCED_FACE('',(#113),#175,.F.);
#120=AXIS2_PLACEMENT_3D('',#144,#126,$);
#121=AXIS2_PLACEMENT_3D('',#153,#131,$);
#122=AXIS2_PLACEMENT_3D('',#159,#135,$);
#123=AXIS2_PLACEMENT_3D('',#165,#139,$);
#124=AXIS2_PLACEMENT_3D('',#168,#142,$);
#125=AXIS2_PLACEMENT_3D('',#169,#143,$);
#126=DIRECTION('',(0.,1.,0.));
#127=DIRECTION('',(1.,0.,0.));
#128=DIRECTION('',(0.,0.,1.));
#129=DIRECTION('',(-1.,0.,0.));
#130=DIRECTION('',(0.,0.,1.));
#131=DIRECTION('',(1.,0.,0.));
#132=DIRECTION('',(0.,-1.,0.));
#133=DIRECTION('',(0.,0.,1.));
#134=DIRECTION('',(0.,1.,0.));
#135=DIRECTION('',(1.11022302462516E-16,-1.,0.));
#136=DIRECTION('',(-1.,-1.11022302462516E-16,0.));
#137=DIRECTION('',(0.,0.,1.));
#138=DIRECTION('',(1.,1.11022302462516E-16,0.));
#139=DIRECTION('',(-1.,0.,0.));
#140=DIRECTION('',(0.,1.,0.));
#141=DIRECTION('',(0.,-1.,0.));
#142=DIRECTION('',(0.,0.,1.));
#143=DIRECTION('',(0.,0.,1.));
#144=CARTESIAN_POINT('',(0.,4.5,0.));
#145=CARTESIAN_POINT('',(10.,4.5,0.5));
#146=CARTESIAN_POINT('',(-10.,4.5,0.5));
#147=CARTESIAN_POINT('',(10.,4.5,0.5));
#148=CARTESIAN_POINT('',(10.,4.5,0.));
#149=CARTESIAN_POINT('',(10.,4.5,0.));
#150=CARTESIAN_POINT('',(10.,4.5,0.));
#151=CARTESIAN_POINT('',(-10.,4.5,0.));
#152=CARTESIAN_POINT('',(-10.,4.5,0.));
#153=CARTESIAN_POINT('',(10.,4.44089209850063E-15,0.));
#154=CARTESIAN_POINT('',(10.,-4.49999999999999,0.5));
#155=CARTESIAN_POINT('',(10.,-4.49999999999999,0.5));
#156=CARTESIAN_POINT('',(10.,-4.49999999999999,0.));
#157=CARTESIAN_POINT('',(10.,-4.49999999999999,0.));
#158=CARTESIAN_POINT('',(10.,-4.49999999999999,0.));
#159=CARTESIAN_POINT('',(0.,-4.49999999999999,0.));
#160=CARTESIAN_POINT('',(-10.,-4.5,0.5));
#161=CARTESIAN_POINT('',(-10.,-4.5,0.5));
#162=CARTESIAN_POINT('',(-10.,-4.5,0.));
#163=CARTESIAN_POINT('',(-10.,-4.5,0.));
#164=CARTESIAN_POINT('',(-10.,-4.5,0.));
#165=CARTESIAN_POINT('',(-10.,2.77555756156289E-15,0.));
#166=CARTESIAN_POINT('',(-10.,4.5,0.5));
#167=CARTESIAN_POINT('',(-10.,4.5,0.));
#168=CARTESIAN_POINT('',(-2.08819377672443E-16,3.60822483003176E-15,0.5));
#169=CARTESIAN_POINT('',(-2.08819377672443E-16,3.60822483003176E-15,0.));
#170=PLANE('',#120);
#171=PLANE('',#121);
#172=PLANE('',#122);
#173=PLANE('',#123);
#174=PLANE('',#124);
#175=PLANE('',#125);
#176=CLOSED_SHELL('',(#114,#115,#116,#117,#118,#119));
#177=MANIFOLD_SOLID_BREP('',#176);
#178=ADVANCED_BREP_SHAPE_REPRESENTATION('',(#177),#33);
ENDSEC;
END-ISO-10303-21;
