ISO-10303-21;
HEADER;
/* Generated by software containing ST-Developer
 * from STEP Tools, Inc. (www.steptools.com) 
 */

FILE_DESCRIPTION(
/* description */ ('Alibre Inc.'),
/* implementation_level */ '2;1');

FILE_NAME(
/* name */ 'export-CE5DA9C0-4244-4D54-B506-3EF3F89C43C3',
/* time_stamp */ '2024-01-02T16:34:36+01:00',
/* author */ (''),
/* organization */ (''),
/* preprocessor_version */ 'ST-DEVELOPER v17',
/* originating_system */ 'Alibre',
/* authorisation */ '');

FILE_SCHEMA (('AUTOMOTIVE_DESIGN'));
ENDSEC;

DATA;
#10=STYLED_ITEM('NAME_0',(#18),#546);
#11=MECHANICAL_DESIGN_GEOMETRIC_PRESENTATION_REPRESENTATION('NAME_0',(#10),
#33);
#12=COLOUR_RGB('',0.686274509803922,0.686274509803922,0.686274509803922);
#13=FILL_AREA_STYLE_COLOUR('NAME_0',#12);
#14=FILL_AREA_STYLE('NAME_0',(#13));
#15=SURFACE_STYLE_FILL_AREA(#14);
#16=SURFACE_SIDE_STYLE('NAME_0',(#15));
#17=SURFACE_STYLE_USAGE(.POSITIVE.,#16);
#18=PRESENTATION_STYLE_ASSIGNMENT((#17));
#19=PRODUCT_DEFINITION_CONTEXT('part definition',#26,'design');
#20=SHAPE_DEFINITION_REPRESENTATION(#21,#547);
#21=PRODUCT_DEFINITION_SHAPE('PRODUCT_VERSION_ID',
'PRODUCT_VERSION_DESCR',#22);
#22=PRODUCT_DEFINITION('PRODUCT_VERSION_ID','PRODUCT_VERSION_DESCR',#23,
#19);
#23=PRODUCT_DEFINITION_FORMATION_WITH_SPECIFIED_SOURCE(
'PRODUCT_VERSION_ID','PRODUCT_VERSION_DESCR',#28,.MADE.);
#24=PRODUCT_RELATED_PRODUCT_CATEGORY('part','part',(#28));
#25=APPLICATION_PROTOCOL_DEFINITION('Draft International Standard',
'automotive_design',1994,#26);
#26=APPLICATION_CONTEXT('automotive_Design');
#27=PRODUCT_CONTEXT('3D Mechanical Parts',#26,'mechanical');
#28=PRODUCT('Zylinderschraube DIN 7984 M6x16 07090.060.016(High)',
'6471 M6x16 Bolt DIN-7984 08.8 Metric Low Head','',(#27));
#29=(
LENGTH_UNIT()
NAMED_UNIT(*)
SI_UNIT(.MILLI.,.METRE.)
);
#30=(
NAMED_UNIT(*)
PLANE_ANGLE_UNIT()
SI_UNIT($,.RADIAN.)
);
#31=(
NAMED_UNIT(*)
SI_UNIT($,.STERADIAN.)
SOLID_ANGLE_UNIT()
);
#32=UNCERTAINTY_MEASURE_WITH_UNIT(LENGTH_MEASURE(1.E-6),#29,
'DISTANCE_ACCURACY_VALUE',
'Maximum model space distance between geometric entities at asserted c
onnectivities');
#33=(
GEOMETRIC_REPRESENTATION_CONTEXT(3)
GLOBAL_UNCERTAINTY_ASSIGNED_CONTEXT((#32))
GLOBAL_UNIT_ASSIGNED_CONTEXT((#31,#30,#29))
REPRESENTATION_CONTEXT('ID1','3D')
);
#34=B_SPLINE_CURVE_WITH_KNOTS('',3,(#474,#475,#476,#477,#478),
 .UNSPECIFIED.,.F.,.U.,(4,1,4),(0.00290947071928308,0.0040852280104865,
0.00526098530168991),.UNSPECIFIED.);
#35=B_SPLINE_CURVE_WITH_KNOTS('',3,(#480,#481,#482,#483,#484),
 .UNSPECIFIED.,.F.,.U.,(4,1,4),(2.38074948506765E-7,0.00116642510612875,
0.00233261213730899),.UNSPECIFIED.);
#36=B_SPLINE_CURVE_WITH_KNOTS('',3,(#486,#487,#488,#489,#490),
 .UNSPECIFIED.,.F.,.U.,(4,1,4),(2.38074948519348E-7,0.00116642510612875,
0.00233261213730899),.UNSPECIFIED.);
#37=B_SPLINE_CURVE_WITH_KNOTS('',3,(#492,#493,#494,#495,#496),
 .UNSPECIFIED.,.F.,.U.,(4,1,4),(0.00290947071928308,0.00408522801048651,
0.00526098530168993),.UNSPECIFIED.);
#38=B_SPLINE_CURVE_WITH_KNOTS('',3,(#498,#499,#500,#501,#502),
 .UNSPECIFIED.,.F.,.U.,(4,1,4),(2.38074948506805E-7,0.00116642510612875,
0.00233261213730899),.UNSPECIFIED.);
#39=B_SPLINE_CURVE_WITH_KNOTS('',3,(#504,#505,#506,#507,#508),
 .UNSPECIFIED.,.F.,.U.,(4,1,4),(2.38074948507174E-7,0.00116642510612875,
0.00233261213730899),.UNSPECIFIED.);
#40=CYLINDRICAL_SURFACE('',#338,3.);
#41=CYLINDRICAL_SURFACE('',#342,5.);
#42=VECTOR('',#373,1.);
#43=VECTOR('',#384,1.);
#44=VECTOR('',#389,1.);
#45=VECTOR('',#397,1.);
#46=VECTOR('',#405,1.);
#47=VECTOR('',#407,1.);
#48=VECTOR('',#408,1.);
#49=VECTOR('',#409,1.);
#50=VECTOR('',#410,1.);
#51=VECTOR('',#411,1.);
#52=VECTOR('',#412,1.);
#53=VECTOR('',#414,1.);
#54=VECTOR('',#415,1.);
#55=VECTOR('',#417,1.);
#56=VECTOR('',#419,1.);
#57=VECTOR('',#421,1.);
#58=VECTOR('',#423,1.);
#59=LINE('',#444,#42);
#60=LINE('',#455,#43);
#61=LINE('',#460,#44);
#62=LINE('',#466,#45);
#63=LINE('',#472,#46);
#64=LINE('',#511,#47);
#65=LINE('',#514,#48);
#66=LINE('',#516,#49);
#67=LINE('',#518,#50);
#68=LINE('',#520,#51);
#69=LINE('',#522,#52);
#70=LINE('',#524,#53);
#71=LINE('',#525,#54);
#72=LINE('',#527,#55);
#73=LINE('',#529,#56);
#74=LINE('',#531,#57);
#75=LINE('',#533,#58);
#76=CONICAL_SURFACE('',#330,3.01394995463856,0.33563855032761);
#77=CONICAL_SURFACE('',#336,3.,0.785398163397449);
#78=CONICAL_SURFACE('',#346,2.31,1.0471975511966);
#79=TOROIDAL_SURFACE('',#326,3.25000000000003,0.250000000000025);
#80=TOROIDAL_SURFACE('',#332,3.4,0.25);
#81=TOROIDAL_SURFACE('',#339,4.9,0.1);
#82=TOROIDAL_SURFACE('',#344,4.4,0.599999999999999);
#83=VERTEX_POINT('',#427);
#84=VERTEX_POINT('',#429);
#85=VERTEX_POINT('',#430);
#86=VERTEX_POINT('',#433);
#87=VERTEX_POINT('',#435);
#88=VERTEX_POINT('',#438);
#89=VERTEX_POINT('',#439);
#90=VERTEX_POINT('',#441);
#91=VERTEX_POINT('',#445);
#92=VERTEX_POINT('',#447);
#93=VERTEX_POINT('',#452);
#94=VERTEX_POINT('',#453);
#95=VERTEX_POINT('',#456);
#96=VERTEX_POINT('',#458);
#97=VERTEX_POINT('',#463);
#98=VERTEX_POINT('',#467);
#99=VERTEX_POINT('',#473);
#100=VERTEX_POINT('',#479);
#101=VERTEX_POINT('',#485);
#102=VERTEX_POINT('',#491);
#103=VERTEX_POINT('',#497);
#104=VERTEX_POINT('',#503);
#105=VERTEX_POINT('',#509);
#106=VERTEX_POINT('',#512);
#107=VERTEX_POINT('',#513);
#108=VERTEX_POINT('',#515);
#109=VERTEX_POINT('',#517);
#110=VERTEX_POINT('',#519);
#111=VERTEX_POINT('',#521);
#112=CIRCLE('',#321,4.4);
#113=CIRCLE('',#322,2.31);
#114=CIRCLE('',#324,3.4);
#115=CIRCLE('',#325,4.9);
#116=CIRCLE('',#327,0.250000000000025);
#117=CIRCLE('',#328,3.01394995463856);
#118=CIRCLE('',#329,3.);
#119=CIRCLE('',#331,3.16394995463856);
#120=CIRCLE('',#333,0.25);
#121=CIRCLE('',#335,2.3865);
#122=CIRCLE('',#337,3.);
#123=CIRCLE('',#340,0.1);
#124=CIRCLE('',#341,5.);
#125=CIRCLE('',#343,5.);
#126=CIRCLE('',#345,0.599999999999999);
#127=EDGE_CURVE('',#83,#83,#112,.T.);
#128=EDGE_CURVE('',#84,#85,#113,.T.);
#129=EDGE_CURVE('',#85,#84,#113,.T.);
#130=EDGE_CURVE('',#86,#86,#114,.T.);
#131=EDGE_CURVE('',#87,#87,#115,.T.);
#132=EDGE_CURVE('',#88,#89,#116,.T.);
#133=EDGE_CURVE('',#88,#90,#117,.T.);
#134=EDGE_CURVE('',#90,#88,#117,.T.);
#135=EDGE_CURVE('',#89,#89,#118,.T.);
#136=EDGE_CURVE('',#91,#90,#59,.T.);
#137=EDGE_CURVE('',#91,#92,#119,.T.);
#138=EDGE_CURVE('',#92,#91,#119,.T.);
#139=EDGE_CURVE('',#86,#92,#120,.T.);
#140=EDGE_CURVE('',#93,#94,#121,.T.);
#141=EDGE_CURVE('',#94,#93,#121,.T.);
#142=EDGE_CURVE('',#95,#94,#60,.T.);
#143=EDGE_CURVE('',#95,#96,#122,.T.);
#144=EDGE_CURVE('',#96,#95,#122,.T.);
#145=EDGE_CURVE('',#96,#89,#61,.T.);
#146=EDGE_CURVE('',#87,#97,#123,.T.);
#147=EDGE_CURVE('',#97,#97,#124,.T.);
#148=EDGE_CURVE('',#97,#98,#62,.T.);
#149=EDGE_CURVE('',#98,#98,#125,.T.);
#150=EDGE_CURVE('',#98,#83,#126,.T.);
#151=EDGE_CURVE('',#85,#99,#63,.T.);
#152=EDGE_CURVE('',#100,#99,#34,.T.);
#153=EDGE_CURVE('',#101,#100,#35,.T.);
#154=EDGE_CURVE('',#102,#101,#36,.T.);
#155=EDGE_CURVE('',#103,#102,#37,.T.);
#156=EDGE_CURVE('',#104,#103,#38,.T.);
#157=EDGE_CURVE('',#105,#104,#39,.T.);
#158=EDGE_CURVE('',#99,#105,#34,.T.);
#159=EDGE_CURVE('',#106,#107,#64,.T.);
#160=EDGE_CURVE('',#108,#106,#65,.T.);
#161=EDGE_CURVE('',#109,#108,#66,.T.);
#162=EDGE_CURVE('',#110,#109,#67,.T.);
#163=EDGE_CURVE('',#111,#110,#68,.T.);
#164=EDGE_CURVE('',#107,#111,#69,.T.);
#165=EDGE_CURVE('',#106,#105,#70,.T.);
#166=EDGE_CURVE('',#108,#104,#71,.T.);
#167=EDGE_CURVE('',#109,#103,#72,.T.);
#168=EDGE_CURVE('',#110,#102,#73,.T.);
#169=EDGE_CURVE('',#111,#101,#74,.T.);
#170=EDGE_CURVE('',#107,#100,#75,.T.);
#171=ORIENTED_EDGE('',*,*,#127,.F.);
#172=ORIENTED_EDGE('',*,*,#128,.T.);
#173=ORIENTED_EDGE('',*,*,#129,.T.);
#174=ORIENTED_EDGE('',*,*,#130,.F.);
#175=ORIENTED_EDGE('',*,*,#131,.T.);
#176=ORIENTED_EDGE('',*,*,#132,.F.);
#177=ORIENTED_EDGE('',*,*,#133,.T.);
#178=ORIENTED_EDGE('',*,*,#134,.T.);
#179=ORIENTED_EDGE('',*,*,#132,.T.);
#180=ORIENTED_EDGE('',*,*,#135,.F.);
#181=ORIENTED_EDGE('',*,*,#136,.T.);
#182=ORIENTED_EDGE('',*,*,#133,.F.);
#183=ORIENTED_EDGE('',*,*,#134,.F.);
#184=ORIENTED_EDGE('',*,*,#136,.F.);
#185=ORIENTED_EDGE('',*,*,#137,.T.);
#186=ORIENTED_EDGE('',*,*,#138,.T.);
#187=ORIENTED_EDGE('',*,*,#139,.F.);
#188=ORIENTED_EDGE('',*,*,#130,.T.);
#189=ORIENTED_EDGE('',*,*,#139,.T.);
#190=ORIENTED_EDGE('',*,*,#137,.F.);
#191=ORIENTED_EDGE('',*,*,#138,.F.);
#192=ORIENTED_EDGE('',*,*,#140,.T.);
#193=ORIENTED_EDGE('',*,*,#141,.T.);
#194=ORIENTED_EDGE('',*,*,#142,.T.);
#195=ORIENTED_EDGE('',*,*,#140,.F.);
#196=ORIENTED_EDGE('',*,*,#141,.F.);
#197=ORIENTED_EDGE('',*,*,#142,.F.);
#198=ORIENTED_EDGE('',*,*,#143,.T.);
#199=ORIENTED_EDGE('',*,*,#144,.T.);
#200=ORIENTED_EDGE('',*,*,#145,.T.);
#201=ORIENTED_EDGE('',*,*,#135,.T.);
#202=ORIENTED_EDGE('',*,*,#145,.F.);
#203=ORIENTED_EDGE('',*,*,#143,.F.);
#204=ORIENTED_EDGE('',*,*,#144,.F.);
#205=ORIENTED_EDGE('',*,*,#146,.T.);
#206=ORIENTED_EDGE('',*,*,#147,.T.);
#207=ORIENTED_EDGE('',*,*,#146,.F.);
#208=ORIENTED_EDGE('',*,*,#131,.F.);
#209=ORIENTED_EDGE('',*,*,#148,.T.);
#210=ORIENTED_EDGE('',*,*,#149,.T.);
#211=ORIENTED_EDGE('',*,*,#148,.F.);
#212=ORIENTED_EDGE('',*,*,#147,.F.);
#213=ORIENTED_EDGE('',*,*,#150,.T.);
#214=ORIENTED_EDGE('',*,*,#127,.T.);
#215=ORIENTED_EDGE('',*,*,#150,.F.);
#216=ORIENTED_EDGE('',*,*,#149,.F.);
#217=ORIENTED_EDGE('',*,*,#151,.F.);
#218=ORIENTED_EDGE('',*,*,#128,.F.);
#219=ORIENTED_EDGE('',*,*,#129,.F.);
#220=ORIENTED_EDGE('',*,*,#151,.T.);
#221=ORIENTED_EDGE('',*,*,#152,.F.);
#222=ORIENTED_EDGE('',*,*,#153,.F.);
#223=ORIENTED_EDGE('',*,*,#154,.F.);
#224=ORIENTED_EDGE('',*,*,#155,.F.);
#225=ORIENTED_EDGE('',*,*,#156,.F.);
#226=ORIENTED_EDGE('',*,*,#157,.F.);
#227=ORIENTED_EDGE('',*,*,#158,.F.);
#228=ORIENTED_EDGE('',*,*,#159,.F.);
#229=ORIENTED_EDGE('',*,*,#160,.F.);
#230=ORIENTED_EDGE('',*,*,#161,.F.);
#231=ORIENTED_EDGE('',*,*,#162,.F.);
#232=ORIENTED_EDGE('',*,*,#163,.F.);
#233=ORIENTED_EDGE('',*,*,#164,.F.);
#234=ORIENTED_EDGE('',*,*,#165,.T.);
#235=ORIENTED_EDGE('',*,*,#157,.T.);
#236=ORIENTED_EDGE('',*,*,#166,.F.);
#237=ORIENTED_EDGE('',*,*,#160,.T.);
#238=ORIENTED_EDGE('',*,*,#166,.T.);
#239=ORIENTED_EDGE('',*,*,#156,.T.);
#240=ORIENTED_EDGE('',*,*,#167,.F.);
#241=ORIENTED_EDGE('',*,*,#161,.T.);
#242=ORIENTED_EDGE('',*,*,#167,.T.);
#243=ORIENTED_EDGE('',*,*,#155,.T.);
#244=ORIENTED_EDGE('',*,*,#168,.F.);
#245=ORIENTED_EDGE('',*,*,#162,.T.);
#246=ORIENTED_EDGE('',*,*,#168,.T.);
#247=ORIENTED_EDGE('',*,*,#154,.T.);
#248=ORIENTED_EDGE('',*,*,#169,.F.);
#249=ORIENTED_EDGE('',*,*,#163,.T.);
#250=ORIENTED_EDGE('',*,*,#169,.T.);
#251=ORIENTED_EDGE('',*,*,#153,.T.);
#252=ORIENTED_EDGE('',*,*,#170,.F.);
#253=ORIENTED_EDGE('',*,*,#164,.T.);
#254=ORIENTED_EDGE('',*,*,#170,.T.);
#255=ORIENTED_EDGE('',*,*,#152,.T.);
#256=ORIENTED_EDGE('',*,*,#158,.T.);
#257=ORIENTED_EDGE('',*,*,#165,.F.);
#258=ORIENTED_EDGE('',*,*,#159,.T.);
#259=EDGE_LOOP('',(#171));
#260=EDGE_LOOP('',(#172,#173));
#261=EDGE_LOOP('',(#174));
#262=EDGE_LOOP('',(#175));
#263=EDGE_LOOP('',(#176,#177,#178,#179,#180));
#264=EDGE_LOOP('',(#181,#182,#183,#184,#185,#186));
#265=EDGE_LOOP('',(#187,#188,#189,#190,#191));
#266=EDGE_LOOP('',(#192,#193));
#267=EDGE_LOOP('',(#194,#195,#196,#197,#198,#199));
#268=EDGE_LOOP('',(#200,#201,#202,#203,#204));
#269=EDGE_LOOP('',(#205,#206,#207,#208));
#270=EDGE_LOOP('',(#209,#210,#211,#212));
#271=EDGE_LOOP('',(#213,#214,#215,#216));
#272=EDGE_LOOP('',(#217,#218,#219,#220,#221,#222,#223,#224,#225,#226,#227));
#273=EDGE_LOOP('',(#228,#229,#230,#231,#232,#233));
#274=EDGE_LOOP('',(#234,#235,#236,#237));
#275=EDGE_LOOP('',(#238,#239,#240,#241));
#276=EDGE_LOOP('',(#242,#243,#244,#245));
#277=EDGE_LOOP('',(#246,#247,#248,#249));
#278=EDGE_LOOP('',(#250,#251,#252,#253));
#279=EDGE_LOOP('',(#254,#255,#256,#257,#258));
#280=FACE_BOUND('',#259,.T.);
#281=FACE_BOUND('',#260,.T.);
#282=FACE_BOUND('',#261,.T.);
#283=FACE_BOUND('',#262,.T.);
#284=FACE_BOUND('',#263,.T.);
#285=FACE_BOUND('',#264,.T.);
#286=FACE_BOUND('',#265,.T.);
#287=FACE_BOUND('',#266,.T.);
#288=FACE_BOUND('',#267,.T.);
#289=FACE_BOUND('',#268,.T.);
#290=FACE_BOUND('',#269,.T.);
#291=FACE_BOUND('',#270,.T.);
#292=FACE_BOUND('',#271,.T.);
#293=FACE_BOUND('',#272,.T.);
#294=FACE_BOUND('',#273,.T.);
#295=FACE_BOUND('',#274,.T.);
#296=FACE_BOUND('',#275,.T.);
#297=FACE_BOUND('',#276,.T.);
#298=FACE_BOUND('',#277,.T.);
#299=FACE_BOUND('',#278,.T.);
#300=FACE_BOUND('',#279,.T.);
#301=ADVANCED_FACE('',(#280,#281),#535,.F.);
#302=ADVANCED_FACE('',(#282,#283),#536,.F.);
#303=ADVANCED_FACE('',(#284),#79,.F.);
#304=ADVANCED_FACE('',(#285),#76,.T.);
#305=ADVANCED_FACE('',(#286),#80,.F.);
#306=ADVANCED_FACE('',(#287),#537,.F.);
#307=ADVANCED_FACE('',(#288),#77,.T.);
#308=ADVANCED_FACE('',(#289),#40,.T.);
#309=ADVANCED_FACE('',(#290),#81,.T.);
#310=ADVANCED_FACE('',(#291),#41,.T.);
#311=ADVANCED_FACE('',(#292),#82,.T.);
#312=ADVANCED_FACE('',(#293),#78,.F.);
#313=ADVANCED_FACE('',(#294),#538,.F.);
#314=ADVANCED_FACE('',(#295),#539,.T.);
#315=ADVANCED_FACE('',(#296),#540,.T.);
#316=ADVANCED_FACE('',(#297),#541,.T.);
#317=ADVANCED_FACE('',(#298),#542,.T.);
#318=ADVANCED_FACE('',(#299),#543,.T.);
#319=ADVANCED_FACE('',(#300),#544,.T.);
#320=AXIS2_PLACEMENT_3D('',#425,#354,$);
#321=AXIS2_PLACEMENT_3D('',#426,#355,#356);
#322=AXIS2_PLACEMENT_3D('',#428,#357,#358);
#323=AXIS2_PLACEMENT_3D('',#431,#359,$);
#324=AXIS2_PLACEMENT_3D('',#432,#360,#361);
#325=AXIS2_PLACEMENT_3D('',#434,#362,#363);
#326=AXIS2_PLACEMENT_3D('',#436,#364,$);
#327=AXIS2_PLACEMENT_3D('',#437,#365,#366);
#328=AXIS2_PLACEMENT_3D('',#440,#367,#368);
#329=AXIS2_PLACEMENT_3D('',#442,#369,#370);
#330=AXIS2_PLACEMENT_3D('',#443,#371,#372);
#331=AXIS2_PLACEMENT_3D('',#446,#374,#375);
#332=AXIS2_PLACEMENT_3D('',#448,#376,$);
#333=AXIS2_PLACEMENT_3D('',#449,#377,#378);
#334=AXIS2_PLACEMENT_3D('',#450,#379,$);
#335=AXIS2_PLACEMENT_3D('',#451,#380,#381);
#336=AXIS2_PLACEMENT_3D('',#454,#382,#383);
#337=AXIS2_PLACEMENT_3D('',#457,#385,#386);
#338=AXIS2_PLACEMENT_3D('',#459,#387,#388);
#339=AXIS2_PLACEMENT_3D('',#461,#390,$);
#340=AXIS2_PLACEMENT_3D('',#462,#391,#392);
#341=AXIS2_PLACEMENT_3D('',#464,#393,#394);
#342=AXIS2_PLACEMENT_3D('',#465,#395,#396);
#343=AXIS2_PLACEMENT_3D('',#468,#398,#399);
#344=AXIS2_PLACEMENT_3D('',#469,#400,$);
#345=AXIS2_PLACEMENT_3D('',#470,#401,#402);
#346=AXIS2_PLACEMENT_3D('',#471,#403,#404);
#347=AXIS2_PLACEMENT_3D('',#510,#406,$);
#348=AXIS2_PLACEMENT_3D('',#523,#413,$);
#349=AXIS2_PLACEMENT_3D('',#526,#416,$);
#350=AXIS2_PLACEMENT_3D('',#528,#418,$);
#351=AXIS2_PLACEMENT_3D('',#530,#420,$);
#352=AXIS2_PLACEMENT_3D('',#532,#422,$);
#353=AXIS2_PLACEMENT_3D('',#534,#424,$);
#354=DIRECTION('',(1.,0.,0.));
#355=DIRECTION('',(1.,0.,0.));
#356=DIRECTION('',(0.,0.,-4.4));
#357=DIRECTION('',(1.,0.,0.));
#358=DIRECTION('',(0.,0.,-2.31));
#359=DIRECTION('',(-1.,0.,0.));
#360=DIRECTION('',(1.,0.,0.));
#361=DIRECTION('',(0.,0.,-3.4));
#362=DIRECTION('',(1.,0.,0.));
#363=DIRECTION('',(0.,0.,-4.9));
#364=DIRECTION('',(1.,0.,0.));
#365=DIRECTION('',(0.,1.,0.));
#366=DIRECTION('',(0.,0.,-0.250000000000025));
#367=DIRECTION('',(1.,0.,0.));
#368=DIRECTION('',(0.,0.,-3.01394995463856));
#369=DIRECTION('',(1.,0.,0.));
#370=DIRECTION('',(0.,0.,-3.));
#371=DIRECTION('',(-1.,0.,0.));
#372=DIRECTION('',(0.,0.,3.01394995463856));
#373=DIRECTION('',(0.944200181445776,0.,-0.329372156318295));
#374=DIRECTION('',(1.,0.,0.));
#375=DIRECTION('',(0.,0.,-3.16394995463856));
#376=DIRECTION('',(1.,0.,0.));
#377=DIRECTION('',(0.,1.,0.));
#378=DIRECTION('',(0.,0.,-0.25));
#379=DIRECTION('',(-1.,0.,0.));
#380=DIRECTION('',(1.,0.,0.));
#381=DIRECTION('',(0.,0.,-2.3865));
#382=DIRECTION('',(-1.,0.,0.));
#383=DIRECTION('',(0.,0.,3.));
#384=DIRECTION('',(0.707106781186547,0.,-0.707106781186548));
#385=DIRECTION('',(1.,0.,0.));
#386=DIRECTION('',(0.,0.,-3.));
#387=DIRECTION('',(1.,0.,0.));
#388=DIRECTION('',(0.,0.,-3.));
#389=DIRECTION('',(-1.,0.,0.));
#390=DIRECTION('',(1.,0.,0.));
#391=DIRECTION('',(0.,1.,0.));
#392=DIRECTION('',(0.,0.,-0.1));
#393=DIRECTION('',(1.,0.,0.));
#394=DIRECTION('',(0.,0.,-5.));
#395=DIRECTION('',(1.,0.,0.));
#396=DIRECTION('',(0.,0.,-5.));
#397=DIRECTION('',(-1.,0.,0.));
#398=DIRECTION('',(1.,0.,0.));
#399=DIRECTION('',(0.,0.,-5.));
#400=DIRECTION('',(1.,0.,0.));
#401=DIRECTION('',(0.,1.,0.));
#402=DIRECTION('',(0.,0.,-0.599999999999999));
#403=DIRECTION('',(-1.,0.,0.));
#404=DIRECTION('',(0.,0.,2.31));
#405=DIRECTION('',(0.499999999999998,0.,-0.86602540378444));
#406=DIRECTION('',(1.,0.,0.));
#407=DIRECTION('',(0.,-1.,0.));
#408=DIRECTION('',(0.,-0.5,0.866025403784439));
#409=DIRECTION('',(0.,0.5,0.866025403784439));
#410=DIRECTION('',(0.,1.,0.));
#411=DIRECTION('',(0.,0.5,-0.866025403784439));
#412=DIRECTION('',(0.,-0.5,-0.866025403784439));
#413=DIRECTION('',(0.,-0.866025403784439,-0.5));
#414=DIRECTION('',(-1.,0.,0.));
#415=DIRECTION('',(-1.,0.,0.));
#416=DIRECTION('',(0.,-0.866025403784439,0.5));
#417=DIRECTION('',(-1.,0.,0.));
#418=DIRECTION('',(0.,0.,1.));
#419=DIRECTION('',(-1.,-6.66210604095744E-15,0.));
#420=DIRECTION('',(0.,0.866025403784439,0.5));
#421=DIRECTION('',(-1.,0.,-2.14710976848651E-17));
#422=DIRECTION('',(0.,0.866025403784439,-0.5));
#423=DIRECTION('',(-1.,0.,0.));
#424=DIRECTION('',(0.,0.,-1.));
#425=CARTESIAN_POINT('',(-4.,0.,0.));
#426=CARTESIAN_POINT('',(-4.,0.,0.));
#427=CARTESIAN_POINT('',(-4.,-5.38844591624835E-16,-4.4));
#428=CARTESIAN_POINT('',(-4.,0.,0.));
#429=CARTESIAN_POINT('',(-4.,-1.41446705301519E-16,-2.31));
#430=CARTESIAN_POINT('',(-4.,1.41446705301519E-16,2.31));
#431=CARTESIAN_POINT('',(0.,5.,0.));
#432=CARTESIAN_POINT('',(0.,0.,0.));
#433=CARTESIAN_POINT('',(0.,-4.163799117101E-16,-3.4));
#434=CARTESIAN_POINT('',(-5.96311194867027E-16,0.,0.));
#435=CARTESIAN_POINT('',(-4.9960036108132E-16,-6.00076931582203E-16,-4.9));
#436=CARTESIAN_POINT('',(0.680000000000003,0.,0.));
#437=CARTESIAN_POINT('',(0.680000000000003,0.,-3.25000000000003));
#438=CARTESIAN_POINT('',(0.597656960920425,-1.70756507035691E-15,-3.01394995463856));
#439=CARTESIAN_POINT('',(0.68,-8.36099981704535E-15,-3.));
#440=CARTESIAN_POINT('',(0.597656960920426,0.,0.));
#441=CARTESIAN_POINT('',(0.597656960920425,-8.53782535178456E-16,3.01394995463856));
#442=CARTESIAN_POINT('',(0.68,0.,0.));
#443=CARTESIAN_POINT('',(0.597656960920426,0.,0.));
#444=CARTESIAN_POINT('',(0.210656960920427,0.,3.14894995463856));
#445=CARTESIAN_POINT('',(0.167656960920426,-2.4226799522601E-15,3.16394995463856));
#446=CARTESIAN_POINT('',(0.167656960920427,0.,0.));
#447=CARTESIAN_POINT('',(0.167656960920426,-1.93736059230526E-16,-3.16394995463856));
#448=CARTESIAN_POINT('',(0.25,0.,0.));
#449=CARTESIAN_POINT('',(0.25,0.,-3.4));
#450=CARTESIAN_POINT('',(16.,2.3865,0.));
#451=CARTESIAN_POINT('',(16.,0.,0.));
#452=CARTESIAN_POINT('',(16.,-1.46130979308258E-16,-2.3865));
#453=CARTESIAN_POINT('',(16.,2.22044604925031E-16,2.3865));
#454=CARTESIAN_POINT('',(15.3865,0.,0.));
#455=CARTESIAN_POINT('',(16.06135,0.,2.32515));
#456=CARTESIAN_POINT('',(15.3865,1.83697019872103E-16,3.));
#457=CARTESIAN_POINT('',(15.3865,0.,0.));
#458=CARTESIAN_POINT('',(15.3865,-1.83697019872103E-16,-3.));
#459=CARTESIAN_POINT('',(16.,0.,0.));
#460=CARTESIAN_POINT('',(0.0665000000000013,0.,-3.));
#461=CARTESIAN_POINT('',(-0.100000000000001,0.,0.));
#462=CARTESIAN_POINT('',(-0.100000000000001,0.,-4.9));
#463=CARTESIAN_POINT('',(-0.100000000000001,-6.12323399573677E-16,-5.));
#464=CARTESIAN_POINT('',(-0.100000000000001,0.,0.));
#465=CARTESIAN_POINT('',(16.,0.,0.));
#466=CARTESIAN_POINT('',(-19.5,0.,-5.));
#467=CARTESIAN_POINT('',(-3.4,-6.12323399573677E-16,-5.));
#468=CARTESIAN_POINT('',(-3.4,0.,0.));
#469=CARTESIAN_POINT('',(-3.4,0.,0.));
#470=CARTESIAN_POINT('',(-3.4,0.,-4.4));
#471=CARTESIAN_POINT('',(-4.,0.,0.));
#472=CARTESIAN_POINT('',(-3.72598521609977,0.,1.83539247225979));
#473=CARTESIAN_POINT('',(-3.82102290661211,8.29038779783794E-10,2.00000051617224));
#474=CARTESIAN_POINT('',(-3.9996542115053,-1.15470053837925,2.));
#475=CARTESIAN_POINT('',(-3.89123689174666,-0.779131925894445,2.));
#476=CARTESIAN_POINT('',(-3.75089565099979,0.00559197877826243,2.));
#477=CARTESIAN_POINT('',(-3.89106150887564,0.778524381807736,2.));
#478=CARTESIAN_POINT('',(-3.99965421150529,1.15470053837925,2.));
#479=CARTESIAN_POINT('',(-3.99965421150483,-1.15470053837908,2.00000000000001));
#480=CARTESIAN_POINT('',(-3.99965421150356,-2.30940107675863,-2.16430683963228E-13));
#481=CARTESIAN_POINT('',(-3.89080048737699,-2.12086089597834,0.326561172379454));
#482=CARTESIAN_POINT('',(-3.75131154146156,-1.73413701283698,0.996386586480636));
#483=CARTESIAN_POINT('',(-3.89066489950268,-1.34347556424814,1.67303206399496));
#484=CARTESIAN_POINT('',(-3.99965421150441,-1.15470053837918,2.00000000000013));
#485=CARTESIAN_POINT('',(-3.99965421150443,-2.30940107675828,-4.59929771172594E-14));
#486=CARTESIAN_POINT('',(-3.99965421150356,-1.15470053837913,-2.00000000000021));
#487=CARTESIAN_POINT('',(-3.89080048737698,-1.34324071915942,-1.67343882762054));
#488=CARTESIAN_POINT('',(-3.75131154146156,-1.72996460230078,-1.00361341351936));
#489=CARTESIAN_POINT('',(-3.89066489950268,-2.12062605088962,-0.326967936005041));
#490=CARTESIAN_POINT('',(-3.99965421150441,-2.30940107675858,1.26950026221562E-13));
#491=CARTESIAN_POINT('',(-3.99965421150443,-1.15470053837894,-1.99999999999999));
#492=CARTESIAN_POINT('',(-3.9996542115053,1.15470053837925,-2.));
#493=CARTESIAN_POINT('',(-3.89123689174666,0.779131925894442,-2.));
#494=CARTESIAN_POINT('',(-3.75089565099979,-0.0055919787782724,-2.));
#495=CARTESIAN_POINT('',(-3.89106150887565,-0.778524381807754,-2.));
#496=CARTESIAN_POINT('',(-3.99965421150529,-1.15470053837927,-2.));
#497=CARTESIAN_POINT('',(-3.99965421150483,1.15470053837908,-2.00000000000001));
#498=CARTESIAN_POINT('',(-3.99965421150356,2.30940107675863,2.16396272422565E-13));
#499=CARTESIAN_POINT('',(-3.89080048737699,2.12086089597834,-0.326561172379454));
#500=CARTESIAN_POINT('',(-3.75131154146156,1.73413701283698,-0.996386586480637));
#501=CARTESIAN_POINT('',(-3.89066489950268,1.34347556424814,-1.67303206399496));
#502=CARTESIAN_POINT('',(-3.99965421150441,1.15470053837918,-2.00000000000013));
#503=CARTESIAN_POINT('',(-3.99965421150443,2.30940107675828,4.59929771172594E-14));
#504=CARTESIAN_POINT('',(-3.99965421150356,1.15470053837913,2.00000000000022));
#505=CARTESIAN_POINT('',(-3.89080048737699,1.34324071915941,1.67343882762055));
#506=CARTESIAN_POINT('',(-3.75131154146156,1.72996460230078,1.00361341351936));
#507=CARTESIAN_POINT('',(-3.89066489950268,2.12062605088962,0.326967936005043));
#508=CARTESIAN_POINT('',(-3.99965421150441,2.30940107675858,-1.26950026221562E-13));
#509=CARTESIAN_POINT('',(-3.99965421150443,1.15470053837893,1.99999999999999));
#510=CARTESIAN_POINT('',(-1.,0.,0.));
#511=CARTESIAN_POINT('',(-1.,1.15470053837925,2.));
#512=CARTESIAN_POINT('',(-1.,1.15470053837925,2.));
#513=CARTESIAN_POINT('',(-1.,-1.15470053837925,2.));
#514=CARTESIAN_POINT('',(-1.,2.3094010767585,0.));
#515=CARTESIAN_POINT('',(-1.,2.3094010767585,0.));
#516=CARTESIAN_POINT('',(-1.,1.15470053837925,-2.));
#517=CARTESIAN_POINT('',(-1.,1.15470053837925,-2.));
#518=CARTESIAN_POINT('',(-1.,-1.15470053837925,-2.));
#519=CARTESIAN_POINT('',(-1.,-1.15470053837925,-2.));
#520=CARTESIAN_POINT('',(-1.,-2.3094010767585,0.));
#521=CARTESIAN_POINT('',(-1.,-2.3094010767585,0.));
#522=CARTESIAN_POINT('',(-1.,-1.15470053837925,2.));
#523=CARTESIAN_POINT('',(-1.,2.3094010767585,0.));
#524=CARTESIAN_POINT('',(-1.,1.15470053837925,2.));
#525=CARTESIAN_POINT('',(-1.,2.3094010767585,0.));
#526=CARTESIAN_POINT('',(-1.,1.15470053837925,-2.));
#527=CARTESIAN_POINT('',(-1.,1.15470053837925,-2.));
#528=CARTESIAN_POINT('',(-1.,-1.15470053837925,-2.));
#529=CARTESIAN_POINT('',(-1.,-1.15470053837925,-2.));
#530=CARTESIAN_POINT('',(-1.,-2.3094010767585,0.));
#531=CARTESIAN_POINT('',(-1.,-2.3094010767585,0.));
#532=CARTESIAN_POINT('',(-1.,-1.15470053837925,2.));
#533=CARTESIAN_POINT('',(-1.,-1.15470053837925,2.));
#534=CARTESIAN_POINT('',(-1.,1.15470053837925,2.));
#535=PLANE('',#320);
#536=PLANE('',#323);
#537=PLANE('',#334);
#538=PLANE('',#347);
#539=PLANE('',#348);
#540=PLANE('',#349);
#541=PLANE('',#350);
#542=PLANE('',#351);
#543=PLANE('',#352);
#544=PLANE('',#353);
#545=CLOSED_SHELL('',(#301,#302,#303,#304,#305,#306,#307,#308,#309,#310,
#311,#312,#313,#314,#315,#316,#317,#318,#319));
#546=MANIFOLD_SOLID_BREP('',#545);
#547=ADVANCED_BREP_SHAPE_REPRESENTATION('',(#546),#33);
ENDSEC;
END-ISO-10303-21;
