ISO-10303-21;
HEADER;
/* Generated by software containing ST-Developer
 * from STEP Tools, Inc. (www.steptools.com) 
 */

FILE_DESCRIPTION(
/* description */ ('Alibre Inc.'),
/* implementation_level */ '2;1');

FILE_NAME(
/* name */ 'export0',
/* time_stamp */ '2011-06-08T13:33:40+02:00',
/* author */ (''),
/* organization */ (''),
/* preprocessor_version */ 'ST-DEVELOPER v12',
/* originating_system */ 'Alibre',
/* authorisation */ '');

FILE_SCHEMA (('CONFIG_CONTROL_DESIGN'));
ENDSEC;

DATA;
#10=MECHANICAL_CONTEXT('detailed design',#18,'mechanical');
#11=PRODUCT_RELATED_PRODUCT_CATEGORY('detail','',(#98));
#12=CC_DESIGN_SECURITY_CLASSIFICATION(#14,(#97));
#13=SECURITY_CLASSIFICATION_LEVEL('unclassified');
#14=SECURITY_CLASSIFICATION('name','Security for version',#13);
#15=SHAPE_DEFINITION_REPRESENTATION(#16,#416);
#16=PRODUCT_DEFINITION_SHAPE('','DefinitionDesc',#96);
#17=APPLICATION_PROTOCOL_DEFINITION('AP definition status',
'config_control_design',1994,#18);
#18=APPLICATION_CONTEXT(
'control the configuration of three dimensional design');
#19=DESIGN_CONTEXT('detailed design',#18,'design');
#20=PERSON_AND_ORGANIZATION_ROLE('creator');
#21=PERSON_AND_ORGANIZATION_ROLE('classification_officer');
#22=PERSON_AND_ORGANIZATION_ROLE('creator');
#23=PERSON_AND_ORGANIZATION_ROLE('design_supplier');
#24=PERSON_AND_ORGANIZATION_ROLE('design_owner');
#25=CC_DESIGN_PERSON_AND_ORGANIZATION_ASSIGNMENT(#57,#20,(#96));
#26=CC_DESIGN_PERSON_AND_ORGANIZATION_ASSIGNMENT(#60,#21,(#14));
#27=CC_DESIGN_PERSON_AND_ORGANIZATION_ASSIGNMENT(#61,#22,(#97));
#28=CC_DESIGN_PERSON_AND_ORGANIZATION_ASSIGNMENT(#62,#23,(#97));
#29=CC_DESIGN_PERSON_AND_ORGANIZATION_ASSIGNMENT(#63,#24,(#98));
#30=DATE_TIME_ROLE('creation_date');
#31=DATE_TIME_ROLE('classification_date');
#32=CC_DESIGN_DATE_AND_TIME_ASSIGNMENT(#86,#30,(#96));
#33=CC_DESIGN_DATE_AND_TIME_ASSIGNMENT(#89,#31,(#14));
#34=CC_DESIGN_APPROVAL(#93,(#96));
#35=CC_DESIGN_APPROVAL(#94,(#97));
#36=CC_DESIGN_APPROVAL(#95,(#14));
#37=APPROVAL_PERSON_ORGANIZATION(#56,#93,#64);
#38=APPROVAL_PERSON_ORGANIZATION(#58,#94,#65);
#39=APPROVAL_PERSON_ORGANIZATION(#59,#95,#66);
#40=ORGANIZATION('DEFINITION_APPROVEDBY_ORG_ID',
'DEFINITION_APPROVEDBY_ORG_NAME','DEFINITION_APPROVEDBY_ORG_DESCR');
#41=ORGANIZATION('DEF_CREATOR_ORG_ID','DEF_CREATOR_ORG_NAME',
'DEF_CREATOR_ORG_DESCR');
#42=ORGANIZATION('APPROVEDBY_ORG_ID','APPROVEDBY_ORG_NAME',
'APPROVEDBY_ORG_DESCR');
#43=ORGANIZATION('SECURITY_APPROVEDBY_ORG_ID',
'SECURITY_APPROVEDBY_ORG_NAME','SECURITY_APPROVEDBY_ORG_DESCR');
#44=ORGANIZATION('CLASSOFFICER_ORG_ID','CLASSOFFICER_ORG_NAME',
'CLASSOFFICER_ORG_DESCR');
#45=ORGANIZATION('CREATOR_ORG_ID','CREATOR_ORG_NAME','CREATOR_ORG_DESCR');
#46=ORGANIZATION('SUPPLIER_ORG_ID','SUPPLIER_ORG_NAME',
'SUPPLIER_ORG_DESCR');
#47=ORGANIZATION('OWNER_ORG_ID','OWNER_ORG_NAME','OWNER_ORG_DESCR');
#48=PERSON('DEFINITION_approverID','DEFINITION_APPROVEDBY_LASTNAME',
'DEFINITION_APPROVEDBY_FIRSTNAME',$,$,$);
#49=PERSON('DEF_createrID','DEF_CREATOR_LASTNAME',
'DEF_CREATOR_FIRSTNAME',$,$,$);
#50=PERSON('approverID','APPROVEDBY_LASTNAME','APPROVEDBY_FIRSTNAME',$,$,
$);
#51=PERSON('SECURITY_approverID','SECURITY_LASTNAME',
'SECURITY_APPROVEDBY_FIRSTNAME',$,$,$);
#52=PERSON('classifierID','CLASSOFFICER_LASTNAME',
'CLASSOFFICER_FIRSTNAME',$,$,$);
#53=PERSON('createrID','CREATOR_LASTNAME','CREATOR_FIRSTNAME',$,$,$);
#54=PERSON('supplierID','SUPPLIER_LASTNAME','SUPPLIER_FIRSTNAME',$,$,$);
#55=PERSON('ownerID','OWNER_LASTNAME','OWNER_FIRSTNAME',$,$,$);
#56=PERSON_AND_ORGANIZATION(#48,#40);
#57=PERSON_AND_ORGANIZATION(#49,#41);
#58=PERSON_AND_ORGANIZATION(#50,#42);
#59=PERSON_AND_ORGANIZATION(#51,#43);
#60=PERSON_AND_ORGANIZATION(#52,#44);
#61=PERSON_AND_ORGANIZATION(#53,#45);
#62=PERSON_AND_ORGANIZATION(#54,#46);
#63=PERSON_AND_ORGANIZATION(#55,#47);
#64=APPROVAL_ROLE('definition_approval');
#65=APPROVAL_ROLE('version_approval');
#66=APPROVAL_ROLE('security_approval');
#67=APPROVAL_DATE_TIME(#85,#93);
#68=APPROVAL_DATE_TIME(#87,#94);
#69=APPROVAL_DATE_TIME(#88,#95);
#70=COORDINATED_UNIVERSAL_TIME_OFFSET(1,0,.AHEAD.);
#71=COORDINATED_UNIVERSAL_TIME_OFFSET(1,0,.AHEAD.);
#72=COORDINATED_UNIVERSAL_TIME_OFFSET(1,0,.AHEAD.);
#73=COORDINATED_UNIVERSAL_TIME_OFFSET(1,0,.AHEAD.);
#74=COORDINATED_UNIVERSAL_TIME_OFFSET(1,0,.AHEAD.);
#75=LOCAL_TIME(13,27,16.,#70);
#76=LOCAL_TIME(13,27,16.,#71);
#77=LOCAL_TIME(13,27,16.,#72);
#78=LOCAL_TIME(13,27,16.,#73);
#79=LOCAL_TIME(13,27,16.,#74);
#80=CALENDAR_DATE(2009,22,4);
#81=CALENDAR_DATE(2009,22,4);
#82=CALENDAR_DATE(2009,22,4);
#83=CALENDAR_DATE(2009,22,4);
#84=CALENDAR_DATE(2009,22,4);
#85=DATE_AND_TIME(#80,#75);
#86=DATE_AND_TIME(#81,#76);
#87=DATE_AND_TIME(#82,#77);
#88=DATE_AND_TIME(#83,#78);
#89=DATE_AND_TIME(#84,#79);
#90=APPROVAL_STATUS('not_yet_approved');
#91=APPROVAL_STATUS('not_yet_approved');
#92=APPROVAL_STATUS('not_yet_approved');
#93=APPROVAL(#90,'defintion approval');
#94=APPROVAL(#91,'version approval');
#95=APPROVAL(#92,'security approval');
#96=PRODUCT_DEFINITION('DefinitionID','DefinitionDesc',#97,#19);
#97=PRODUCT_DEFINITION_FORMATION_WITH_SPECIFIED_SOURCE(
'PRODUCT_VERSION_ID','PRODUCT_VERSION_DESCR',#98,.NOT_KNOWN.);
#98=PRODUCT('ID_1','608 2Z','',(#10));
#99=(
LENGTH_UNIT()
NAMED_UNIT(*)
SI_UNIT(.CENTI.,.METRE.)
);
#100=(
NAMED_UNIT(*)
PLANE_ANGLE_UNIT()
SI_UNIT($,.RADIAN.)
);
#101=(
NAMED_UNIT(*)
SI_UNIT($,.STERADIAN.)
SOLID_ANGLE_UNIT()
);
#102=UNCERTAINTY_MEASURE_WITH_UNIT(LENGTH_MEASURE(1.E-006),$,
'DISTANCE_ACCURACY_VALUE',
'Maximum model space distance between geometric entities at asserted co
nnectivities');
#103=(
GEOMETRIC_REPRESENTATION_CONTEXT(3)
GLOBAL_UNCERTAINTY_ASSIGNED_CONTEXT($)
GLOBAL_UNIT_ASSIGNED_CONTEXT((#101,#100,#99))
REPRESENTATION_CONTEXT('ID1','3D')
);
#104=PLANE('',#281);
#105=PLANE('',#285);
#106=PLANE('',#292);
#107=PLANE('',#296);
#108=PLANE('',#300);
#109=PLANE('',#305);
#110=CYLINDRICAL_SURFACE('',#279,0.4);
#111=CYLINDRICAL_SURFACE('',#290,1.1);
#112=CYLINDRICAL_SURFACE('',#298,0.564839303493498);
#113=CYLINDRICAL_SURFACE('',#302,0.914770483970637);
#114=CYLINDRICAL_SURFACE('',#303,0.914770483970637);
#115=CYLINDRICAL_SURFACE('',#307,0.564839303493498);
#116=VERTEX_POINT('',#364);
#117=VERTEX_POINT('',#366);
#118=VERTEX_POINT('',#369);
#119=VERTEX_POINT('',#372);
#120=VERTEX_POINT('',#375);
#121=VERTEX_POINT('',#378);
#122=VERTEX_POINT('',#381);
#123=VERTEX_POINT('',#383);
#124=VERTEX_POINT('',#386);
#125=VERTEX_POINT('',#389);
#126=VERTEX_POINT('',#392);
#127=VERTEX_POINT('',#395);
#128=VERTEX_POINT('',#398);
#129=VERTEX_POINT('',#401);
#130=VERTEX_POINT('',#405);
#131=VERTEX_POINT('',#408);
#132=CIRCLE('',#277,0.45);
#133=CIRCLE('',#278,0.4);
#134=CIRCLE('',#280,0.4);
#135=CIRCLE('',#282,0.564839303493498);
#136=CIRCLE('',#284,0.45);
#137=CIRCLE('',#286,0.564839303493498);
#138=CIRCLE('',#288,1.05);
#139=CIRCLE('',#289,1.1);
#140=CIRCLE('',#291,1.1);
#141=CIRCLE('',#293,0.914770483970637);
#142=CIRCLE('',#295,1.05);
#143=CIRCLE('',#297,0.914770483970637);
#144=CIRCLE('',#299,0.564839303493498);
#145=CIRCLE('',#301,0.914770483970637);
#146=CIRCLE('',#304,0.914770483970637);
#147=CIRCLE('',#306,0.564839303493499);
#148=EDGE_CURVE('',#116,#116,#132,.T.);
#149=EDGE_CURVE('',#117,#117,#133,.T.);
#150=EDGE_CURVE('',#118,#118,#134,.T.);
#151=EDGE_CURVE('',#119,#119,#135,.T.);
#152=EDGE_CURVE('',#120,#120,#136,.T.);
#153=EDGE_CURVE('',#121,#121,#137,.T.);
#154=EDGE_CURVE('',#122,#122,#138,.T.);
#155=EDGE_CURVE('',#123,#123,#139,.T.);
#156=EDGE_CURVE('',#124,#124,#140,.T.);
#157=EDGE_CURVE('',#125,#125,#141,.T.);
#158=EDGE_CURVE('',#126,#126,#142,.T.);
#159=EDGE_CURVE('',#127,#127,#143,.T.);
#160=EDGE_CURVE('',#128,#128,#144,.T.);
#161=EDGE_CURVE('',#129,#129,#145,.T.);
#162=EDGE_CURVE('',#130,#130,#146,.T.);
#163=EDGE_CURVE('',#131,#131,#147,.T.);
#164=ORIENTED_EDGE('',*,*,#148,.T.);
#165=ORIENTED_EDGE('',*,*,#149,.T.);
#166=ORIENTED_EDGE('',*,*,#150,.F.);
#167=ORIENTED_EDGE('',*,*,#149,.F.);
#168=ORIENTED_EDGE('',*,*,#151,.T.);
#169=ORIENTED_EDGE('',*,*,#148,.F.);
#170=ORIENTED_EDGE('',*,*,#150,.T.);
#171=ORIENTED_EDGE('',*,*,#152,.T.);
#172=ORIENTED_EDGE('',*,*,#153,.F.);
#173=ORIENTED_EDGE('',*,*,#152,.F.);
#174=ORIENTED_EDGE('',*,*,#154,.T.);
#175=ORIENTED_EDGE('',*,*,#155,.T.);
#176=ORIENTED_EDGE('',*,*,#156,.F.);
#177=ORIENTED_EDGE('',*,*,#155,.F.);
#178=ORIENTED_EDGE('',*,*,#157,.T.);
#179=ORIENTED_EDGE('',*,*,#154,.F.);
#180=ORIENTED_EDGE('',*,*,#156,.T.);
#181=ORIENTED_EDGE('',*,*,#158,.T.);
#182=ORIENTED_EDGE('',*,*,#159,.F.);
#183=ORIENTED_EDGE('',*,*,#158,.F.);
#184=ORIENTED_EDGE('',*,*,#160,.F.);
#185=ORIENTED_EDGE('',*,*,#153,.T.);
#186=ORIENTED_EDGE('',*,*,#161,.F.);
#187=ORIENTED_EDGE('',*,*,#160,.T.);
#188=ORIENTED_EDGE('',*,*,#157,.F.);
#189=ORIENTED_EDGE('',*,*,#161,.T.);
#190=ORIENTED_EDGE('',*,*,#162,.F.);
#191=ORIENTED_EDGE('',*,*,#159,.T.);
#192=ORIENTED_EDGE('',*,*,#163,.F.);
#193=ORIENTED_EDGE('',*,*,#162,.T.);
#194=ORIENTED_EDGE('',*,*,#151,.F.);
#195=ORIENTED_EDGE('',*,*,#163,.T.);
#196=EDGE_LOOP('',(#164));
#197=EDGE_LOOP('',(#165));
#198=EDGE_LOOP('',(#166));
#199=EDGE_LOOP('',(#167));
#200=EDGE_LOOP('',(#168));
#201=EDGE_LOOP('',(#169));
#202=EDGE_LOOP('',(#170));
#203=EDGE_LOOP('',(#171));
#204=EDGE_LOOP('',(#172));
#205=EDGE_LOOP('',(#173));
#206=EDGE_LOOP('',(#174));
#207=EDGE_LOOP('',(#175));
#208=EDGE_LOOP('',(#176));
#209=EDGE_LOOP('',(#177));
#210=EDGE_LOOP('',(#178));
#211=EDGE_LOOP('',(#179));
#212=EDGE_LOOP('',(#180));
#213=EDGE_LOOP('',(#181));
#214=EDGE_LOOP('',(#182));
#215=EDGE_LOOP('',(#183));
#216=EDGE_LOOP('',(#184));
#217=EDGE_LOOP('',(#185));
#218=EDGE_LOOP('',(#186));
#219=EDGE_LOOP('',(#187));
#220=EDGE_LOOP('',(#188));
#221=EDGE_LOOP('',(#189));
#222=EDGE_LOOP('',(#190));
#223=EDGE_LOOP('',(#191));
#224=EDGE_LOOP('',(#192));
#225=EDGE_LOOP('',(#193));
#226=EDGE_LOOP('',(#194));
#227=EDGE_LOOP('',(#195));
#228=FACE_BOUND('',#196,.T.);
#229=FACE_BOUND('',#197,.T.);
#230=FACE_BOUND('',#198,.T.);
#231=FACE_BOUND('',#199,.T.);
#232=FACE_BOUND('',#200,.T.);
#233=FACE_BOUND('',#201,.T.);
#234=FACE_BOUND('',#202,.T.);
#235=FACE_BOUND('',#203,.T.);
#236=FACE_BOUND('',#204,.T.);
#237=FACE_BOUND('',#205,.T.);
#238=FACE_BOUND('',#206,.T.);
#239=FACE_BOUND('',#207,.T.);
#240=FACE_BOUND('',#208,.T.);
#241=FACE_BOUND('',#209,.T.);
#242=FACE_BOUND('',#210,.T.);
#243=FACE_BOUND('',#211,.T.);
#244=FACE_BOUND('',#212,.T.);
#245=FACE_BOUND('',#213,.T.);
#246=FACE_BOUND('',#214,.T.);
#247=FACE_BOUND('',#215,.T.);
#248=FACE_BOUND('',#216,.T.);
#249=FACE_BOUND('',#217,.T.);
#250=FACE_BOUND('',#218,.T.);
#251=FACE_BOUND('',#219,.T.);
#252=FACE_BOUND('',#220,.T.);
#253=FACE_BOUND('',#221,.T.);
#254=FACE_BOUND('',#222,.T.);
#255=FACE_BOUND('',#223,.T.);
#256=FACE_BOUND('',#224,.T.);
#257=FACE_BOUND('',#225,.T.);
#258=FACE_BOUND('',#226,.T.);
#259=FACE_BOUND('',#227,.T.);
#260=ADVANCED_FACE('',(#228,#229),#410,.T.);
#261=ADVANCED_FACE('',(#230,#231),#110,.F.);
#262=ADVANCED_FACE('',(#232,#233),#104,.T.);
#263=ADVANCED_FACE('',(#234,#235),#411,.T.);
#264=ADVANCED_FACE('',(#236,#237),#105,.T.);
#265=ADVANCED_FACE('',(#238,#239),#412,.T.);
#266=ADVANCED_FACE('',(#240,#241),#111,.T.);
#267=ADVANCED_FACE('',(#242,#243),#106,.T.);
#268=ADVANCED_FACE('',(#244,#245),#413,.T.);
#269=ADVANCED_FACE('',(#246,#247),#107,.T.);
#270=ADVANCED_FACE('',(#248,#249),#112,.T.);
#271=ADVANCED_FACE('',(#250,#251),#108,.T.);
#272=ADVANCED_FACE('',(#252,#253),#113,.F.);
#273=ADVANCED_FACE('',(#254,#255),#114,.F.);
#274=ADVANCED_FACE('',(#256,#257),#109,.T.);
#275=ADVANCED_FACE('',(#258,#259),#115,.T.);
#276=AXIS2_PLACEMENT_3D('',#362,#308,$);
#277=AXIS2_PLACEMENT_3D('',#363,#309,#310);
#278=AXIS2_PLACEMENT_3D('',#365,#311,#312);
#279=AXIS2_PLACEMENT_3D('',#367,#313,#314);
#280=AXIS2_PLACEMENT_3D('',#368,#315,#316);
#281=AXIS2_PLACEMENT_3D('',#370,#317,$);
#282=AXIS2_PLACEMENT_3D('',#371,#318,#319);
#283=AXIS2_PLACEMENT_3D('',#373,#320,$);
#284=AXIS2_PLACEMENT_3D('',#374,#321,#322);
#285=AXIS2_PLACEMENT_3D('',#376,#323,$);
#286=AXIS2_PLACEMENT_3D('',#377,#324,#325);
#287=AXIS2_PLACEMENT_3D('',#379,#326,$);
#288=AXIS2_PLACEMENT_3D('',#380,#327,#328);
#289=AXIS2_PLACEMENT_3D('',#382,#329,#330);
#290=AXIS2_PLACEMENT_3D('',#384,#331,#332);
#291=AXIS2_PLACEMENT_3D('',#385,#333,#334);
#292=AXIS2_PLACEMENT_3D('',#387,#335,$);
#293=AXIS2_PLACEMENT_3D('',#388,#336,#337);
#294=AXIS2_PLACEMENT_3D('',#390,#338,$);
#295=AXIS2_PLACEMENT_3D('',#391,#339,#340);
#296=AXIS2_PLACEMENT_3D('',#393,#341,$);
#297=AXIS2_PLACEMENT_3D('',#394,#342,#343);
#298=AXIS2_PLACEMENT_3D('',#396,#344,#345);
#299=AXIS2_PLACEMENT_3D('',#397,#346,#347);
#300=AXIS2_PLACEMENT_3D('',#399,#348,$);
#301=AXIS2_PLACEMENT_3D('',#400,#349,#350);
#302=AXIS2_PLACEMENT_3D('',#402,#351,#352);
#303=AXIS2_PLACEMENT_3D('',#403,#353,#354);
#304=AXIS2_PLACEMENT_3D('',#404,#355,#356);
#305=AXIS2_PLACEMENT_3D('',#406,#357,$);
#306=AXIS2_PLACEMENT_3D('',#407,#358,#359);
#307=AXIS2_PLACEMENT_3D('',#409,#360,#361);
#308=DIRECTION('',(1.,6.73518391000087E-016,0.));
#309=DIRECTION('',(1.,6.73518391000087E-016,0.));
#310=DIRECTION('',(3.03083275950039E-016,-0.45,5.5107285922007E-017));
#311=DIRECTION('',(-1.,-6.73518391000087E-016,0.));
#312=DIRECTION('',(2.70616862252382E-016,-0.4,4.89842541528951E-017));
#313=DIRECTION('',(1.,0.,0.));
#314=DIRECTION('',(0.,0.4,0.));
#315=DIRECTION('',(1.,1.09446738537514E-015,0.));
#316=DIRECTION('',(4.37150315946155E-016,-0.4,4.89842541528951E-017));
#317=DIRECTION('',(1.,6.73518391000087E-016,0.));
#318=DIRECTION('',(1.,0.,0.));
#319=DIRECTION('',(0.,0.564839303493498,0.));
#320=DIRECTION('',(1.,1.09446738537514E-015,0.));
#321=DIRECTION('',(-1.,-1.09446738537514E-015,0.));
#322=DIRECTION('',(4.92510323418813E-016,-0.45,5.5107285922007E-017));
#323=DIRECTION('',(-1.,-1.09446738537514E-015,0.));
#324=DIRECTION('',(1.,0.,0.));
#325=DIRECTION('',(0.,0.564839303493498,0.));
#326=DIRECTION('',(1.,0.,0.));
#327=DIRECTION('',(1.,0.,0.));
#328=DIRECTION('',(0.,-1.05,1.2858366715135E-016));
#329=DIRECTION('',(-1.,0.,0.));
#330=DIRECTION('',(0.,-1.1,1.34706698920462E-016));
#331=DIRECTION('',(1.,0.,0.));
#332=DIRECTION('',(0.,1.1,0.));
#333=DIRECTION('',(1.,0.,0.));
#334=DIRECTION('',(0.,-1.1,1.34706698920462E-016));
#335=DIRECTION('',(-1.,0.,0.));
#336=DIRECTION('',(1.,0.,0.));
#337=DIRECTION('',(0.,0.914770483970637,0.));
#338=DIRECTION('',(1.,0.,0.));
#339=DIRECTION('',(-1.,0.,0.));
#340=DIRECTION('',(0.,-1.05,1.2858366715135E-016));
#341=DIRECTION('',(1.,0.,0.));
#342=DIRECTION('',(1.,0.,0.));
#343=DIRECTION('',(0.,0.914770483970637,0.));
#344=DIRECTION('',(1.,0.,0.));
#345=DIRECTION('',(0.,0.564839303493498,0.));
#346=DIRECTION('',(1.,0.,0.));
#347=DIRECTION('',(0.,0.564839303493498,0.));
#348=DIRECTION('',(-1.,0.,0.));
#349=DIRECTION('',(1.,0.,0.));
#350=DIRECTION('',(0.,0.914770483970637,0.));
#351=DIRECTION('',(1.,0.,0.));
#352=DIRECTION('',(0.,0.914770483970637,0.));
#353=DIRECTION('',(1.,0.,0.));
#354=DIRECTION('',(0.,0.914770483970637,0.));
#355=DIRECTION('',(1.,0.,0.));
#356=DIRECTION('',(0.,0.914770483970637,0.));
#357=DIRECTION('',(1.,0.,0.));
#358=DIRECTION('',(1.,0.,0.));
#359=DIRECTION('',(0.,0.564839303493499,0.));
#360=DIRECTION('',(1.,0.,0.));
#361=DIRECTION('',(0.,0.564839303493498,0.));
#362=CARTESIAN_POINT('',(0.65,0.,0.));
#363=CARTESIAN_POINT('',(0.7,3.36759195500046E-017,0.));
#364=CARTESIAN_POINT('',(0.7,0.45,1.23259516440783E-032));
#365=CARTESIAN_POINT('',(0.65,0.,0.));
#366=CARTESIAN_POINT('',(0.65,0.4,-9.79685083057902E-017));
#367=CARTESIAN_POINT('',(0.35,0.,0.));
#368=CARTESIAN_POINT('',(0.0499999999999999,0.,0.));
#369=CARTESIAN_POINT('',(0.0499999999999995,0.4,-1.23259516440783E-032));
#370=CARTESIAN_POINT('',(0.7,0.482419651746749,0.));
#371=CARTESIAN_POINT('',(0.7,0.,0.));
#372=CARTESIAN_POINT('',(0.7,0.564839303493498,0.));
#373=CARTESIAN_POINT('',(0.0499999999999999,0.,0.));
#374=CARTESIAN_POINT('',(4.37150315946155E-016,-5.47233692687565E-017,0.));
#375=CARTESIAN_POINT('',(-5.53600074726579E-017,0.45,-1.10214571844014E-016));
#376=CARTESIAN_POINT('',(-9.0205620750794E-017,0.482419651746749,0.));
#377=CARTESIAN_POINT('',(-1.80411241501588E-016,0.,0.));
#378=CARTESIAN_POINT('',(-1.80411241501588E-016,0.564839303493498,0.));
#379=CARTESIAN_POINT('',(0.05,0.,0.));
#380=CARTESIAN_POINT('',(0.,0.,0.));
#381=CARTESIAN_POINT('',(0.,1.05,0.));
#382=CARTESIAN_POINT('',(0.05,0.,0.));
#383=CARTESIAN_POINT('',(0.05,1.1,-2.69413397840923E-016));
#384=CARTESIAN_POINT('',(0.35,0.,0.));
#385=CARTESIAN_POINT('',(0.65,0.,0.));
#386=CARTESIAN_POINT('',(0.65,1.1,0.));
#387=CARTESIAN_POINT('',(0.,1.00738524198532,0.));
#388=CARTESIAN_POINT('',(0.,0.,0.));
#389=CARTESIAN_POINT('',(0.,0.914770483970637,0.));
#390=CARTESIAN_POINT('',(0.65,0.,0.));
#391=CARTESIAN_POINT('',(0.7,0.,0.));
#392=CARTESIAN_POINT('',(0.7,1.05,-2.57167334302699E-016));
#393=CARTESIAN_POINT('',(0.7,1.00738524198532,0.));
#394=CARTESIAN_POINT('',(0.7,0.,0.));
#395=CARTESIAN_POINT('',(0.7,0.914770483970637,0.));
#396=CARTESIAN_POINT('',(0.0471915490925312,0.,0.));
#397=CARTESIAN_POINT('',(0.0943830981850626,0.,0.));
#398=CARTESIAN_POINT('',(0.0943830981850626,0.564839303493498,0.));
#399=CARTESIAN_POINT('',(0.0943830981850626,0.739804893732067,0.));
#400=CARTESIAN_POINT('',(0.0943830981850626,0.,0.));
#401=CARTESIAN_POINT('',(0.0943830981850626,0.914770483970637,0.));
#402=CARTESIAN_POINT('',(0.0471915490925313,0.,0.));
#403=CARTESIAN_POINT('',(0.5995491206646,0.,0.));
#404=CARTESIAN_POINT('',(0.499098241329201,0.,0.));
#405=CARTESIAN_POINT('',(0.499098241329201,0.914770483970637,0.));
#406=CARTESIAN_POINT('',(0.499098241329201,0.739804893732068,0.));
#407=CARTESIAN_POINT('',(0.499098241329201,0.,0.));
#408=CARTESIAN_POINT('',(0.499098241329201,0.564839303493499,0.));
#409=CARTESIAN_POINT('',(0.5995491206646,0.,0.));
#410=TOROIDAL_SURFACE('',#276,0.45,0.05);
#411=TOROIDAL_SURFACE('',#283,0.45,0.05);
#412=TOROIDAL_SURFACE('',#287,1.05,0.05);
#413=TOROIDAL_SURFACE('',#294,1.05,0.05);
#414=CLOSED_SHELL('',(#260,#261,#262,#263,#264,#265,#266,#267,#268,#269,
#270,#271,#272,#273,#274,#275));
#415=MANIFOLD_SOLID_BREP('',#414);
#416=ADVANCED_BREP_SHAPE_REPRESENTATION('',(#415),#103);
ENDSEC;
END-ISO-10303-21;
